PrimaNota.ru - самый крупный в мире бесплатный архив песенных текстов, аккордов, табулатур и нот


Great White - Call It Rock N' Roll - аккорды и текст, видео

Регистрация Запомнить меня
Войти через:  Facebook Google Twitter Vk Yandex Mail.ru

Great White - Call It Rock N' Roll - аккорды и текст, видео

Печатать
Просмотров: 193
Новый альбом группы 'Черный Кузнец' по культовому сериалу 'Сверхъестественное'!
Авторы: Alan Niven, Michael Lardie, Jack Russell, Tony Montana, Mark Kendall

Call It Rock N' Roll
Great White
SONG:   CALL IT ROCK N' ROLL
ARTIST: GREAT WHITE
TAB BY: DON CZARSKI
EMAIL:  GUITARZAN7@HOTMAIL.COM


                   CALL IT ROCK N' ROLL
                       GREAT WHITE

INTRO: (RHYTHM GUITAR)
D  D   D

          D  D   D       
Oh, yeah  

G                 D  D   A
  Sounds familiar
       G          D  A
Let's rock it man

==========================================

INTRO: (LEAD GUITAR)

   D                      D
E --------------------------------------------
B -2-2-----2---2-2-----2----------------------
G -----2h4---------2h4----5-4--5-4--5-4--5-4--
D --------------------------------------------
A --------------------------------------------
E --------------------------------------------
   
   D                      D
E --------------------------------------------
B -2-2-----2---2-2-----2----------------------
G -----2h4---------2h4----5-4--5-4--5-4--5-4--
D --------------------------------------------
A --------------------------------------------
E --------------------------------------------

   G                      D
E --------------------------------------------
B -3-3-----5---3-3-----5----------------------
G -----3h5---------3h5----5-4--5-4--5-4--5-4--
D --------------------------------------------
A --------------------------------------------
E --------------------------------------------

    A             G         D             A
E ---------------------------------------------------
B ---------------------------------------------------
G --4/11-11-11----4/9-9-9----------------------------
D --------------------------5-5-5-5-5-5-5-7-7-7-7-7--
A ---------------------------------------------------
E ---------------------------------------------------

=====================================================

VERSE:
              D                          
Well there's something going down 
 G                          D     D
Right here in the neighbourhood

               G
Yeah, there's something going down 
                               D     D
And don't know if you really should

           A
Don't you lose your head 
      G                    D    A
I'll make your heart feel good


VERSE:
               D
Well there's trouble all around, 
  G                D   D
Trouble with the PTA

         G
Tell me what ya gonna do, 
                       D    D
Taking all our highs away

        A
It's enough to turn you around 
      G            D   A
But, momma, not today


CHORUS:
          D                       G                D   D
Well come on, little baby, let's call it rock and roll
          G                                        D   D
Well come on, little baby, let's call it rock and roll
       A                                     
Gonna get a good feeling 
 G                  D     
Right down to your soul  
 A
Yes sir


INSTRUMENTAL/SOLO:
D  G  D  D
G  G  D  D
A  G  D  A


VERSE:
          D
Now your papa's getting down, 
 G                        D   D
Momma's saying you're no good

    G
Oh baby, it's a shame 
                         D    D
It's never really understood

       A              
How a dose of rock and roll 
     G                    D    A
Can make your heart feel good


CHORUS:
          D                       G                D   D
Well come on, little baby, let's call it rock and roll
     G                                        D   D
Come on, little mama, let's call it rock and roll
       A                                      
Gonna get a good feeling 
 G                  D    A
Right down to your soul  


CHORUS:
          D                       G                D   D
Well come on, little baby, let's call it rock and roll
     G                                         D   D
Come on, little honey, let's call it rock and roll
       A                                     
Gonna get a good feeling 
 G                  D     
Right down to your soul  
 A
Yeah, boy


INSTRUMENTAL/SOLO:
D  G  D  D
G  G  D  D
A  G  D  A


OUTRO:
         D           G                D   D
I said, yeah, yeah, call it rock and roll
         G                            D   D
I said, yeah, yeah, call it rock and roll

       A                                     
Gonna get a good feeling 
 G                  D   D
Right down to your soul  

       A                                     
Gonna get a good feeling 
 G                  D    D 
Right down to your soul
  
       A                 G                  
Gonna get a good feeling 
N.C.
Right down to your soul yeah

Добавлено: 12.12.2017
Вам также может быть интересно:
Другие материалы по этой песне:
  • Аккорды и текст

Страница создана 28.03.2012
http://primanota.ru/great-white/call-it-rock-n-roll-chords.htm
Привет, Гость.
Предлагаем пройти революционный курс по гитаре.
Подарок от PrimaNota.Ru, забирай!