PrimaNota.ru - самый крупный в мире бесплатный архив песенных текстов, аккордов, табулатур и нот


Great Lake Swimmers - Rocky Spine - таба, видео

Регистрация Запомнить меня
Войти через:  Facebook Google Twitter Vk Yandex Mail.ru

Great Lake Swimmers - Rocky Spine - таба, видео

Печатать
Просмотров: 175
Уроки эстрадного вокала в Санкт-Петербурге
Song:   Your Rocky Spine
Artist: Great Lake Swimmers
Album:  Ongiara
Tabbed By: Peter Beshai

Standard Tuning: EADGBE
Capo'd at 5th fret

INTRO

E|-----1-------1-----1----------|-----0-----0------------------|
B|-----3-------3-----3----------|-----3-----3------------------|
G|-----2--0h2--2-----2--0h2--0--|-----0-----0--0h2--0-------0--|
D|--0-------------0-------------|--2-----2-------------0h2-----|
A|------------------------------|--3-----3---------------------|
E|------------------------------|------------------------------|

E|-----1-----1-----1-----1--|--------------------------------|
B|-----3-----3-----3-----3--|--------------------------------|
G|-----0-----0-----0-----0--|-------2-----2-------2-------2--|
D|--------------------------|-------3-----3-------3--0h3-----|
A|--2-----2-----2-----2-----|--0h1-----1-----0h1-------------|
E|--3-----3-----3-----3-----|--------------------------------|


VERSE A

E|-----1-------1----------------|-----0-----0------------------|
B|-----3-------3--3-------------|-----3-----3------------------|
G|-----2--0h2--2--------0h2--0--|-----0-----0--0h2--0-------0--|
D|--0---------------------------|--2-----2-------------0h2-----|
A|------------------------------|--3-----3---------------------|
E|------------------------------|------------------------------|

E|-----1-----1-----1-----1--|--------------------------------|
B|-----3-----3-----3-----3--|--------------------------------|
G|-----0-----0-----0-----0--|-------2-----2-------2-------2--|
D|--------------------------|-------3-----3-------3--0h3-----|  
A|--2-----2-----2-----2-----|--0h1-----1-----0h1-------------|
E|--3-----3-----3-----3-----|--------------------------------|

Repeat the 4 bars above. Then:

E|------------------------------|------------------------------|
B|-----3-----3------------------|------------------------------|
G|-----0-----0--0h2--0-------0--|-----2-----2---------------0--|
D|--2-----2-------------0h2-----|-----3-----3----------0h3-----|
A|--3-----3---------------------|--1-----1-----1p0-------------|
E|------------------------------|-------------------1----------|

E|------------------------------|------------------------------|
B|-----3-----3------------------|------------------------------|
G|-----0-----0--0h2--0-------0--|-----2-----2---------------2--|
D|--2-----2-------------0h2-----|-----3-----3-------3--0h3-----|
A|--3-----3---------------------|--1-----1-----0h1-------------|
E|------------------------------|------------------------------|


VERSE B

E|-----1-------1----------------|-----0-----0------------------|
B|-----3-------3--3-------------|-----3-----3------------------|
G|-----2--0h2--2--------0h2--0--|-----0-----0--0h2--0-------0--|
D|--0---------------------------|--2-----2-------------0h2-----|
A|------------------------------|--3-----3---------------------|
E|------------------------------|------------------------------|

E|-----1-----1-----1-----1--|--------------------------------|
B|-----3-----3-----3-----3--|--------------------------------|
G|-----0-----0-----0-----0--|-------2-----2-------2----------|
D|--------------------------|-------3-----3-------3--0h3--0--|   
A|--2-----2-----2-----2-----|--0h1-----1-----0h1-------------|
E|--3-----3-----3-----3-----|--------------------------------|


E|-----1-------1----------------|-----0-----0------------------|
B|-----3-------3--3-------------|-----3-----3------------------|
G|-----2--0h2--2--------0h2--0--|-----0-----0--0h2--0----------|
D|--0---------------------------|--2-------------------0h2--0--|
A|------------------------------|--3---------------------------|
E|------------------------------|--------3---------------------|

E|-----1-----1-----1-----1--|------------------------------|
B|-----3-----3-----3-----3--|-------1-----1-----1-----1----|
G|-----0-----0-----0-----0--|-------2-----2-----0-----0----|
D|--------------------------|-------3-----3-----2-----2----|   
A|--2-----2-----2-----2-----|--0h1-----1-----3-----3-------|
E|--3-----3-----3-----3-----|------------------------------|


CHORUS 1

E|-----1-----1-------1-----1--|-----0-----0-------0-----0--|
B|-----1-----1-------1-----1--|-----3-----3-------3-----3--|
G|-----2-----2-------2-----2--|-----0-----0-------0-----0--|
D|--3-------------3-----------|----------------------------|
A|--------3-------------3-----|--3-------------3-----------|
E|----------------------------|--------3-------------3-----|

E|-----1-----1-------1-----1--|----------------------------|
B|-----3-----3-------3-----3--|-------1-----1-----1-----1--|
G|-----0-----0-------0-----0--|-------2-----2-----0-----0--|
D|--------0-------------0-----|-------3-----3-----2-----2--|  
A|----------------------------|--0h1-----1-----3-----3-----|
E|--3-------------3-----------|----------------------------|

Repeat the 4 bars above. Then:

BRIDGE

E|-----1-------1-----1----------|-----0-----0------------------|
B|-----3-------3-----3----------|-----3-----3------------------|
G|-----2--0h2--2-----2--0h2--0--|-----0-----0--0h2--0-------0--|
D|--0-------------0-------------|--2-----2-------------0h2-----|
A|------------------------------|--3-----3---------------------|
E|------------------------------|------------------------------|

E|-----1-----1-----1------1--|--------------------------------|
B|-----3-----3-----3------3--|--------------------------------|
G|-----0-----0-----0------0--|-------2-----2---------------0--|
D|---------------------------|-------3-----3----------0h3-----|
A|--2----0h2-----2----0h2----|--0h1-----1-----1p0-------------|
E|--3------------3-----------|---------------------1----------|

E|-----1-------1-----1----------|-----0-----0------------------|
B|-----3-------3-----3----------|-----3-----3------------------|
G|-----2--0h2--2-----2--0h2--0--|-----0-----0--0h2--0-------0--|
D|--0-------------0-------------|--2-----2-------------0h2-----|
A|------------------------------|--3-----3---------------------|
E|------------------------------|------------------------------|

E|-----1-----1-----1-----1--|--------------------------------|
B|-----3-----3-----3-----3--|--------------------------------|
G|-----0-----0-----0-----0--|-------2-----2-------2-------2--|
D|--------------------------|-------3-----3-------3--0h3-----|
A|--2-----2-----2-----2-----|--0h1-----1-----0h1-------------|
E|--3-----3-----3-----3-----|--------------------------------|


VERSE C

E|-----1-------1----------------|-----0-----0------------------|
B|-----3-------3--3-------------|-----3-----3-------3----------|
G|-----2--0h2--2--------0h2--0--|-----0-----0--0h2----------0--|
D|--0---------------------------|--2-----2-------------0h2-----|
A|------------------------------|--3-----3---------------------|
E|------------------------------|------------------------------|

E|-----1-----1-----1-----1--|--------------------------------|
B|-----3-----3-----3-----3--|--------------------------------|
G|-----0-----0-----0-----0--|-------2-------------2-------2--|
D|--------------------------|-------3--3----------3--0h3-----|  
A|--2-----2-----2-----2-----|--0h1-----------0h1-------------|
E|--3-----3-----3-----3-----|--------------------------------|

E|-----1-------1----------------|-----0-----0------------------|
B|-----3-------3--3-------------|-----3-----3------------------|
G|-----2--0h2--2--------0h2--0--|-----0-----0--0h2--0-------0--|
D|--0---------------------------|--2-----2-------------0h2-----|
A|------------------------------|--3-----3---------------------|
E|------------------------------|------------------------------|

E|-----1-----1-----1-----1--|------------------------------|
B|-----3-----3-----3-----3--|------------------------------|
G|-----0-----0-----0-----0--|-------2--2--2--2--2-------0--|
D|--------------------------|-------3--3--3--3--3--0h3-----|  
A|--2-----2-----2-----2-----|--0h1-----1--1--1--1----------| 
E|--3-----3-----3-----3-----|------------------------------|

E|------------------------------|------------------------------|
B|-----3-----3------------------|------------------------------|
G|-----0-----0--0h2--0-------0--|-----2-----2---------------0--|
D|--2-----2-------------0h2-----|-----3-----3----------0h3-----|
A|--3-----3---------------------|--1-----1-----1p0-------------|
E|------------------------------|-------------------1----------|

E|------------------------------|------------------------------|
B|-----3-----3------------------|------------------------------|
G|-----0-----0--0h2--0-------0--|-----2-----2---------------2--|
D|--2-----2-------------0h2-----|-----3-----3-------3--0h3-----|
A|--3-----3---------------------|--1-----1-----0h1-------------|
E|------------------------------|------------------------------|


VERSE D
(There is just silence in the recording for 4 measures, but these work)
E|--1---------------------------|--0---------------------------|
B|--3---------------------------|--3---------------------------|
G|--2---------------------------|--0---------------------------|
D|--0---------------------------|--2---------------------------|
A|------------------------------|--3---------------------------|
E|------------------------------|------------------------------|

E|--1---------------------------|------------------------------|
B|--3---------------------------|--1---------------------------|
G|--0---------------------------|--2---------------------------|
D|--0---------------------------|--3---------------------------|
A|--2---------------------------|--1---------------------------|
E|--3---------------------------|------------------------------|

E|-----1-------1----------------|-----0-----0------------------|
B|-----3-------3--3-------------|-----3-----3------------------|
G|-----2--0h2--2--------0h2--0--|-----0-----0--0h2--0-------0--|
D|--0---------------------------|--2-----2-------------0h2-----|
A|------------------------------|--3-----3---------------------|
E|------------------------------|------------------------------|

E|-----1-----1-----1-----1--|--------------------0-----0----|
B|-----3-----3-----3-----3--|--------1-----1-----1-----1----|
G|-----0-----0-----0-----0--|--------2-----2-----0-----0----|
D|--------------------------|--------3-----3-----2-----2----|   
A|--2-----2-----2-----2-----|--0h1------1-----3-----3-------|
E|--3-----3-----3-----3-----|-------------------------------|


CHORUS 2

E|-----1-----1-------1-----1--|-----0-----0-------0-----0--|
B|-----1-----1-------1-----1--|-----1-----1-------1-----1--|
G|-----2-----2-------2-----2--|-----0-----0-------0-----0--|
D|--3-------------3-----------|----------------------------|
A|--------3-------------3-----|--3-------------3-----------|
E|----------------------------|--------3-------------3-----|

E|-----1-----1-------1-----1--|----------------------------|
B|-----3-----3-------3-----3--|-------1-----1-----1-----1--|
G|-----0-----0-------0-----0--|-------2-----2-----0-----0--|
D|--------0-------------0-----|-------3-----3-----2-----2--|  
A|----------------------------|--0h1-----1-----3-----3-----|
E|--3-------------3-----------|----------------------------|

Repeat the 4 bars above. Then:

OUTRO

E|-----1-------1-----1----------|-----0-----0------------------|
B|-----3-------3-----3----------|-----3-----3------------------|
G|-----2--0h2--2-----2--0h2--0--|-----0-----0--0h2----------0--|
D|--0-------------0-------------|--2-----2----------0--0h2-----|
A|------------------------------|--3-----3---------------------|
E|------------------------------|------------------------------|

E|-----1-----1-----1-----1--|--------------------------------|
B|-----3-----3-----3-----3--|--------------------------------|
G|-----0-----0-----0-----0--|-------2-----2-------2-------0--|
D|--------------------------|-------3-----3-------3--0h3-----|
A|--2-----2-----2-----2-----|--0h1-----1-----0h1-------------|
E|--3-----3-----3-----3-----|--------------------------------|


E|-----1-------1----------------|-----0-----0------------------|
B|-----3-------3--3-------------|-----3-----3-------3----------|
G|-----2--0h2--2--------0h2--0--|-----0-----0--0h2----------0--|
D|--0---------------------------|--2-----2-------------0h2-----|
A|------------------------------|--3-----3---------------------|
E|------------------------------|------------------------------|

E|-----1-----1-----1-----1--|--------------------------------|
B|-----3-----3-----3-----3--|--------------------------------|
G|-----0-----0-----0-----0--|-------2-----2-------2-------0--|
D|--------------------------|-------3-----3-------3--0h3-----|
A|--2-----2-----2-----2-----|--0h1-----1-----0h1-------------|
E|--3-----3-----3-----3-----|--------------------------------|

E|------------------------------|
B|------------------------------|
G|--2---------------------------|
D|--3---------------------------|
A|--1---------------------------|
E|------------------------------|


Добавлено: 13.04.2012
Другие материалы по этой песне:
  • Аккорды и текст

Страница создана 13.04.2012
http://primanota.ru/great-lake-swimmers/rocky-spine-chords.htm
Привет, Гость.
Предлагаем пройти революционный курс по гитаре.
Подарок от PrimaNota.Ru, забирай!