PrimaNota.ru - самый крупный в мире бесплатный архив песенных текстов, аккордов, табулатур и нот


Great Collapse - New Abolition - таба, видео

Регистрация Запомнить меня
Войти через:  Facebook Google Twitter Vk Yandex Mail.ru

Great Collapse - New Abolition - таба, видео

Печатать
Просмотров: 44
Уроки эстрадного вокала в Санкт-Петербурге
-------------------------------------------------------------------------------
                             New Abolition - The Great Collapse
-------------------------------------------------------------------------------
Tabbed by: Dead_Emperor
E-mail: kyeo41@hotmail.co.uk

Tuning: Standard (E A D G B e)

Intro:
Guitar 1: 
(*W/wah)

e|----------------------------------------------------------------------------|
B|----------------------------------------------------------------------------|
G|-----------------------10-8-10-(10-10-10-10)----10-8-10-(10-10-10-10)-------|
D|----------------------------------------------------------------------------|
A|-----------------------8--6-8--(8--8--8--8-)----8--6-8--(8--8--8--8-)-------|
E|----------------------------------------------------------------------------|
                             Quick depression on wah pedal
Guitar 2:

e|---------------------------------------------------------------------------|
B|---------------------------------------------------------------------------|
G|-----------------------10-8-10------------------10-8-10--------------------|
D|-10^--------10^--------10-8-10------------------10-8-10--------------------|
A|-----------------------8--6-8-------------------8--6-8---------------------|
E|---------------------------------------------------------------------------|
Let feedback-----^

Intro pt.2
Guitar 1:                                                 X2  (No way)
e|-----------------------------------------------------------|----------------|
B|-----------------------------------------------------------|----------------|
G|-10-10-12-13-12-12-12--8-8-------10-12-12--10-12-13-12-----|--10-8-10-------|
D|-----------------------------------------------------------|--10-8-10-------|
A|-8--8--10-11-10-10-10--6-6-------8--10-10--8--10-11-10-----|--8--6-8--------|
E|-----------------------------------------------------------|----------------|

Guitar 2:
                                            X2   (No way...)
e|-------------------------------------------------------|---------------------|
B|-------------------------------------------------------|---------------------|
G|--------------6-6-6-6-6-6------------------------------|-10-8-10-------------|
D|-3-3-3-3-3-3--6-6-6-6-6-6--6-6-6-6-6-6---8-8-8-8-8-8---|-10-8-10-------------|
A|-3-3-3-3-3-3--4-4-4-4-4-4--6-6-6-6-6-6---8-8-8-8-8-8---|-8--6-8--------------|
E|-1-1-1-1-1-1---------------4-4-4-4-4-4- -6-6-6-6-6-6---|---------------------|

Verse:
Both guitars:
e|---------------------------------------------------------------------------|
B|---------------------------------------------------------------------------|
G|-------------------------------8-8-6-8--8-8-6-8--8-8-6-8-------------------|
D|-3-3-3-3-3-3-3-3-3-3-3--6-6-6--8-8-6-8--8-8-6-8--8-8-6-8-------------------|
A|-3-3-3-3-3-3-3-3-3-3-3--6-6-6--6-6-4-6--6-6-4-6--6-6-4-6-------------------|
E|-1-1-1-1-1-1-1-1-1-1-1--4-4-4----------------------------------------------|
Pm----------------------           -----------------------

Verse pt.2:
Both guitars:

e|---------------------------------------------------------------------------|
B|---------------------------------------------------------------------------|
G|-6-6-6-6-6-6---------------------------------------------------------------|
D|-6-6-6-6-6-6--3-3-3-3-3-3-3--6-6-6-6-6--8-8-8-8----------------------------|
A|-4-4-4-4-4-4--3-3-3-3-3-3-3--6-6-6-6-6--8-8-8-8----------------------------|
E|--------------1-1-1-1-1-1-1--4-4-4-4-4--6-6-6-6----------------------------|

Chorus:
Both guitars:

e|----------------------------------------------------------------------------|
B|----------------------------------------------------------------------------|
G|---------------6-6-6-6-6-6--------------------------------------------------|
D|--3-3-3-3-3-3--6-6-6-6-6-6--6-6-6-6-6-6---8-8-8-8-8-8-----------------------|
A|--3-3-3-3-3-3--4-4-4-4-4-4--6-6-6-6-6-6---8-8-8-8-8-8-----------------------|
E|--1-1-1-1-1-1---------------4-4-4-4-4-4---6-6-6-6-6-6-----------------------|

Verse 2:
Both guitars:
e|---------------------------------------------------------------------------|
B|---------------------------------------------------------------------------|
G|------------------6~-------------------------------------------------------|
D|-3~--------6-6-6--6~-------------------------------------------------------|
A|-3~--------6-6-6--4~-------------------------------------------------------|
E|-1~--------4-4-4-----------------------------------------------------------|
Let ring

Bridge:
Both guitars:
e|---------------------------------------------------------------------------|
B|---------------------------------------------------------------------------|
G|----------------------8-8-8-8----------------------------------------------|
D|-11-11-11-11/6-6-6-6--8-8-8-8-8-8-8/11-------------------------------------|
A|-11-11-11-11/6-6-6-6--6-6-6-6-8-8-8/11-------------------------------------|
E|-9--9--9--9-/4-4-4-4----------6-6-6/9--------------------------------------|
(While the dollar stack...)
e|---------------------------------------------------------------------------|
B|---------------------------------------------------------------------------|
G|-6-6-6-6-6------------8-8-8-8-8-8-8-8-8------------------------------------|
D|-6-6-6-6-6-6-6-6-6-6--8-8-8-8-8-8-8-8-8------------------------------------|
A|-4-4-4-4-4-6-6-6-6-6--6-6-6-6-6-6-6-6-6------------------------------------|
E|-----------4-4-4-4-4-------------------------------------------------------|


************************************

| /   slide up
| \   slide down
| h   hammer-on
| p   pull-off
| ~   vibrato
| +   harmonic
| x   Mute note
| b   Bend
| pb  Pre-bend
| br  Bend release
| pbr Pre-bend release
| brb Bend release bend

************************************
Добавлено: 27.06.2016
Другие материалы по этой песне:
  • Аккорды и текст

Страница создана 27.06.2016
http://primanota.ru/great-collapse/new-abolition-chords.htm
Привет, Гость.
Предлагаем пройти революционный курс по гитаре.
Подарок от PrimaNota.Ru, забирай!