PrimaNota.ru - самый крупный в мире бесплатный архив песенных текстов, аккордов, табулатур и нот


the grays - Same Thing - аккорды и текст, видео

Регистрация Запомнить меня
Войти через:  Facebook Google Twitter Vk Yandex Mail.ru

the grays - Same Thing - аккорды и текст, видео

Печатать
Просмотров: 70
Same Thing
the grays
SONG:   SAME THING
ARTIST: THE GRAYS
TAB BY: DON CZARSKI
EMAIL:  GUITARZAN7@HOTMAIL.COM


               SAME THING
               THE GRAYS

INTRO:
Palm mute Dm chord  ... then,

    RIFF - 9x's

    Dm       E
E ----------------
B --5-5-6-5-5h6-0-
G ----------------
D ----------------
A ----------------
E ----------------


VERSE:
        F#m         G
I'll be out on the town
        A          Bm
In the jacket you bought me
       F#m         G 
After dragging me down
         A           Bm
In the trouble you brought me

E ----------------
B ----------------
G --9br-----------
D ------7-6-------
A ----------------
E ----------------


CHORUS:
                       G    F#
And I'll be doing the same things
 Bm        A             G       F#
Running around wouldn't that be something
Bm         A          G     F#
I'm doing all of the same things
   Dm         E      Dm  E
So here goes nothing

    Dm      E    Dm      E
E ----------------------------
B --5br-5-3-0----5br-5-3-0----
G ----------------------------
D ----------------------------
A ----------------------------
E ----------------------------


VERSE:
     F#m          G
Got away with so much
      A         Bm
I got by on so little
        F#m         G
Now I'm way out of touch
           A               Bm
With the faith that's too brittle

E ----------------
B ----------------
G --9br-----------
D ------7-6-------
A ----------------
E ----------------


CHORUS:
                       G     F#
And now I'm doing the same things
 Bm        A       G       F#
It's hypocritical don't remind me
 Bm              A         G    F#
'Cause when I'm doing the same things
          Dm          E       Dm E   Dm E   Dm E  E
Several things will blind me

    Dm      E    Dm      E    Dm      E    Dm      E   E
E ------------------------------------------------------
B --5br-5-3-0----5br-5-3-0----5br-5-3-0----5br-5-3-0----
G ------------------------------------------------------
D ------------------------------------------------------
A ------------------------------------------------------
E -------------------------------------------------------


BREAK:
   F#
Oh oh 
              E      Bm      A      Bm      E   F#
Well there's always someone you can not repla-a-ace
            E       Bm       A     Bm         E   F# 
But you're hiding something deeper you can't fa-a-ace
        E       Bm          A     Bm       G
As you wander 'round just feeling out of place
                           Em G
(Oh it's always something)
    F#               N.C. (Cymbal)
So here goes nothing


INSTRUMENTAL:
Em F#m Bm A   Em F#m Bm A


CHORUS:
                       G     F#
And now I'm doing the same things
Bm           A       G     F#
Though it's never a noble mission
Bm           A         G    F#
It's an indication of bad things
        Dm     E
And my sad condition


OUTRO:
     G     F#
The same things
 Bm        A             G       F#
Running around wouldn't that be something
Bm         A          G     F#
I'm doing all of the same things
    Dm        E
So here goes nothing
Dm    E
   Oooooh 
 Dm        E
Here goes nothing 
 Dm        E
Here goes nothing 
 Dm        E
Here goes nothing 
 Dm        E
Here goes nothing 
 Dm        E
Here goes nothing 
 Dm        E
Here goes nothing 

Dm E  Dm E  Dm E  Dm E  Dm E
Dm E  Dm E  Dm E  Dm E  Dm E
Dm


Добавлено: 20.06.2016
Другие материалы по этой песне:
  • Аккорды и текст

Страница создана 20.06.2016
http://primanota.ru/grays/same-thing-chords.htm
Привет, Гость.
Предлагаем пройти революционный курс по гитаре.
Подарок от PrimaNota.Ru, забирай!