PrimaNota.ru - самый крупный в мире бесплатный архив песенных текстов, аккордов, табулатур и нот


Gray, David - Tidal Wave - текст песни, таба, видео

Регистрация Запомнить меня
Войти через:  Facebook Google Twitter Vk Yandex Mail.ru

Gray, David - Tidal Wave - текст песни, таба, видео

Печатать
Просмотров: 102
Author/Artist: David Gray
Title: Tidal Wave
Album: Lost Songs
Transcribed by: Spoon
Email: Spoonyvibes@hotmail.com
Rough idea I think???

Verses go like this...
-|-0----------0---------4--5-|------------------------------------------------|
-|-9----------0---------4--5-|------------------------------------------------|
-|----------------------4--6-|------------------------------------------------|
-|-9-11-9---------------6--7-|------------------------------------------------|
-|---------12-11-9-7----6--7-|------------------------------------------------|
-|----------------------4--5-|------------------------------------------------|


Chorus parts follow through these chords
("Even if I wanted to")
-|-4--5--0--4--0--|-----------------------------------------------------------|
-|-4--5--0--4--5--|-----------------------------------------------------------|
-|-4--6--3--4--4--|-----------------------------------------------------------|
-|-6--7--4--6--6--|-----------------------------------------------------------|
-|-6--7--4--6--6--|-----------------------------------------------------------|
-|-4--5--2--4--4--|-----------------------------------------------------------|

(End of the verses go like this):
"Talking with the light on...bluer skies"
-|-0-----------0-------2--5-|-------------------------------------------------|
-|-9-----------0-------2--5-|-------------------------------------------------|
-|---------------------3--6-|-------------------------------------------------|
-|-9-11-9--------------4--7-|-------------------------------------------------|
-|----------12-11-9-7--4--7-|-------------------------------------------------|
-|---------------------2--5-|-------------------------------------------------|

just listen to the cd...
Добавлено: 03.12.2013
Другие материалы по этой песне:
  • Аккорды и текст

Страница создана 23.03.2012
http://primanota.ru/gray-david/tidal-wave-chords.htm
Привет, Гость.
Предлагаем пройти революционный курс по гитаре.
Подарок от PrimaNota.Ru, забирай!