PrimaNota.ru - самый крупный в мире бесплатный архив песенных текстов, аккордов, табулатур и нот


Graveyard - The Siren - таба, видео

Регистрация Запомнить меня
Войти через:  Facebook Google Twitter Vk Yandex Mail.ru

Graveyard - The Siren - таба, видео

Печатать
Просмотров: 184
Band: Graveyard
Song: The Siren
Album: Hisingen Blues (2011)
Tuning: DGCFAD (1 step down)

______________________________________________

Well, I usually like to make my tabs on Guitar Pro, 
and I would especially like to make this beautiful tune on it, but 
I'm no Guitar Pro ace and I'm having trouble with 
tabbing it with the correct rhythm. I'll keep trying it, and 
as soon as I make it, I'll be sending the Guitar Pro tab 
for this song here, too. For now, I'm gonna 
send this text version of it, since there's no tabs 
for this song on this website. Hope you find it useful! 
______________________________________________

Legend:

h = Hammer-on
p = Pull-off
~~ = Vibrato
b = Bend
r = Release bend
" = Tremolo picking

Please, rate it!
______________________________________________

|--5-------3--------1--------|
|--5-------3--------1--------|
|--5-------4--------2--------|
|--7-------5--------3--------|
|--7-------5--------3--------|
|--5-------3--------1--------|

These above are the chords played during the verses. 
Listen to the song carefully to get the rhythm and strumming throughout the song.

______________________________________________


Then, for the chorus:

|---------------------------------------------|
|---------------------------------------------|
|--5------------------------------------------|
|--5------5------7--7--7--7--7-7-7-7-7-7-7----|
|--3------5------7--7--7--7--7-7-7-7-7-7-7----|
|---------3------5--5--5--5--5-5-5-5-5-5-5----|

"Tonight a demon came into my head..."

______________________________________________

Solo parts:

Ok, here comes the solo section. 
This one below is the rhythm guitar part. Just listen to the 
song and you'll be able to get the rhythm:

|----------------------------|
|----------------------------|
|----------------------------|
|----------------------------|
|--8----8---7--------8-7-----|
|-----8---8----5---5-----8---|


______________________________________________

Here's the lead parts.

Before the solo really kicks in, 
there's these 4 bars with little fills. 
I separated each bar to make it easier to learn. :)

(02:42)

|---------------------------| |-------------------------------------------|
|---------------------------| |---------------------8~~-----10----10~~----|
|---------------------9~~---| |---------------------9~~---9----9----------|
|--9h10-9----7--10-7--------| |--9h10-9----7--10-7------------------------|
|---------10----------------| |---------10--------------------------------|
|---------------------------| |-------------------------------------------|

|----------------------------------| 
|----------------------------10~~--| 
|-----------------9~~-7~~--9-------| 
|--9h10-9----7h10------------------| 
|---------10-----------------------| 
|----------------------------------| 

|----------------------------------------------------------|
|--10-13~~----13h12----12----------------------------------|
|----------14-------14----12-12-14~~-14--14h12-14~~--14~~--|
|----------------------------------------------------------|
|----------------------------------------------------------|
|----------------------------------------------------------|

______________________________________________

Then, the solo:

(02:58)

|-----------------------------------------------------------------|
|--------------------------13"--12"--13"--15"--17"--20"---17-20---|
|------------9"--12"--14"-----------------------------------------|
|--10"--12"-------------------------------------------------------|
|-----------------------------------------------------------------|
|-----------------------------------------------------------------|
 
|---------20--------------| |----------------------------------|
|--20b22-----b22--20b22---| |--22r20-17------------------------|
|-------------------------| |-----------19b21--19b21--19b21----|
|-------------------------| |----------------------------------|
|-------------------------| |----------------------------------|
|-------------------------| |----------------------------------|

|------------------------------|
|------------------------------|
|--16h17p16-----16-------------|
|-----------19-----17s19--19---|
|------------------------------|
|------------------------------|

|-----------------------------------------------------------|
|-----------------------------------------------------------|
|-----------------------------------------------------------|
|--------------------17-------------------------------------|
|--17h19----15-17b19-----b19--b19--19r17--15-17--15---------|
|--------17------------------------------------------17~~---|



______________________________________________

After the solo:

(3:15)


|--12-------12-15p12---||----------------------||---------------|
|--15b17---------------||--13h12---------------||---------------|
|----------------------||--------14--12--14----||---------------|
|----------------------||----------------------||--12------10---|
|----------------------||----------------------||------12-------|
|----------------------||----------------------||---------------|

These smooth notes here uses echo.

|--------||-------------------------| 
|--------||------8-10b12--8-10b12---|
|--7b9---||--7h9--------------------|
|--------||-------------------------|
|--------||-------------------------|
|--------||-------------------------|

|-----------------------------------|
|------8----------------------------|
|--7h9---7--5-7--5-------5----------|
|-------------------5h7-------------|
|-----------------------------------|
|-----------------------------------|

______________________________________________

Nearby the end of the song (starting at 04:55) there's 
some solos being played. They're really easy 
to figure out, just pentatonic stuff, 
so just listen to it and you'll get it.

That's it. Hope you find it useful!
Добавлено: 24.10.2013
Другие материалы по этой песне:

Страница создана 16.07.2013
http://primanota.ru/graveyard/the-siren-chords.htm
Привет, Гость.
Предлагаем пройти революционный курс по гитаре.
Подарок от PrimaNota.Ru, забирай!