PrimaNota.ru - самый крупный в мире бесплатный архив песенных текстов, аккордов, табулатур и нот


Graveyard - Submarine Blues - бас-таба, видео

Регистрация Запомнить меня
Войти через:  Facebook Google Twitter Vk Yandex Mail.ru

Graveyard - Submarine Blues - бас-таба, видео

Печатать
Просмотров: 85
Уроки эстрадного вокала в Санкт-Петербурге
I know there's a tab pro version of this song but I thought I'd type down
anyways since I figured it out a long time ago. Also, Graveyard plays with
their guitars tuned to D Standard but I'm tabbing it in E Standard
because it's still possible and more common to play in.

Intro/Bridge/Outro Riff

G|----------------------------------|
D|----------------------------------|
A|-10-10p8---8-8-8p6--6-5-----------|
E|--------10--------8-----6-6s8-8-8-|

Verse x2

G|-----------------------------------------------------------------------|
D|-----------------------------------------------------------------------|
A|-6-5-------6-5-------6-5-------6-5-------6-5-------6-5-------6-5-------|
E|-----6-8-8-----6-8-8-----6-8-8-----6-8-8-----6-8-8-----6-8-8-----6-8-8-|

G|--------------------------------------------|
D|------------------8------------------8------|
A|-6-5-----5-6-8-10---8-10----5-6-8-10---8-10-|
E|-----6-8------------------8-----------------|

Chorus

G|------------------------------------------------------------|
D|------------------------------------------------------------|
A|-10-10p8---8-8-8p6--6-5---------------------------------6-5-|
E|--------10--------8-----6-8s10-10-10-8s10-10-10-8s10-10-----|

G|---------------------------------------------------------------------|
D|---------------------------------------------------------------------|
A|-------------------------------6-5-------------------------------6-5-|
E|-8s10-10-10-8s10-10-10-8s10-10-----8s10-10-10-8s10-10-10-8s10-10-----|

G|-----------------------------------|
D|-----------------------------------|
A|-------------------------------6-5-|
E|-8s10-10-10-8s10-10-10-8s10-10-----|

Intro/Bridge/Outro Riff

G|----------------------------------|
D|----------------------------------|
A|-10-10p8---8-8-8p6--6-5-----------|
E|--------10--------8-----6-6s8-8-8-|

Verse

G|-----------------------------------------------------------------------|
D|-----------------------------------------------------------------------|
A|-6-5-------6-5-------6-5-------6-5-------6-5-------6-5-------6-5-------|
E|-----6-8-8-----6-8-8-----6-8-8-----6-8-8-----6-8-8-----6-8-8-----6-8-8-|

G|--------------------------------------------|
D|------------------8------------------8------|
A|-6-5-----5-6-8-10---8-10----5-6-8-10---8-10-|
E|-----6-8------------------8-----------------|

Chorus

G|------------------------------------------------------------|
D|------------------------------------------------------------|
A|-10-10p8---8-8-8p6--6-5---------------------------------6-5-|
E|--------10--------8-----6-8s10-10-10-8s10-10-10-8s10-10-----|

G|---------------------------------------------------------------------|
D|---------------------------------------------------------------------|
A|-------------------------------6-5-------------------------------6-5-|
E|-8s10-10-10-8s10-10-10-8s10-10-----8s10-10-10-8s10-10-10-8s10-10-----|

G|---------------------------------------------------------------------|
D|---------------------------------------------------------------------|
A|-------------------------------6-5-------------------------------6-5-|
E|-8s10-10-10-8s10-10-10-8s10-10-----8s10-10-10-8s10-10-10-8s10-10-----|

G|---------------------------------------------------------------------|
D|---------------------------------------------------------------------|
A|-------------------------------6-5-------------------------------6-5-|
E|-8s10-10-10-8s10-10-10-8s10-10-----8s10-10-10-8s10-10-10-8s10-10-----|

G|-------------------------------------|
D|-------------------------------------|
A|-------------------------------6-5---|
E|-8s10-10-10-8s10-10-10-8s10-10-----6-|

Outro Part 1

G|------------------------------|
D|------------------------------|
A|---5-6-8--5-6-8--5-6-8--5-6-8-|
E|-8------8------8------8-------|

Intro/Bridge/Outro Riff

G|-----------------------------|
D|-----------------------------|
A|-10-10p8---8-8-8p6--6-5------|
E|--------10--------8-----6-8~-|
Добавлено: 06.11.2013
Другие материалы по этой песне:

Страница создана 01.05.2012
http://primanota.ru/graveyard/submarine-blues-chords.htm
Привет, Гость.
Предлагаем пройти революционный курс по гитаре.
Подарок от PrimaNota.Ru, забирай!