PrimaNota.ru - самый крупный в мире бесплатный архив песенных текстов, аккордов, табулатур и нот


Graveyard - Hisingen Blues - таба, видео

Регистрация Запомнить меня
Войти через:  Facebook Google Twitter Vk Yandex Mail.ru

Graveyard - Hisingen Blues - таба, видео

Печатать
Просмотров: 99
Уроки эстрадного вокала в Санкт-Петербурге
-------------------------------------------------------------------------------
                             Hisingen Blues - Graveyard
-------------------------------------------------------------------------------
Tabbed by: VakiPitsi

Tuning: Standard (eBGDAE)

e|---------------------------------------------------------------------------|
B|---------------------------------------------------------------------------|
G|----7---7---7---7---7---7---7---7---7---7---7---7---7---7---7---7---7---7--|
D|---7---7---7---7---7---7---7---7---7---7---7---7---7---7---7---7---7---7---|
A|--5---5---5---5---5---5---5---5---5---5---5---5---5---5---5---5---5---5----|
E|---------------------------------------------------------------------------|

e|------------------------------------------------------------------------------------------------|
B|------------------------------------------------------------------------------------------------|
G|-5-5---7-7---5/7\5--5----5-5---7-7---5/7\5--5-----7---7---7---7--5-5----7---7---7---7--5-5------|
D|-5-5---7-7---5/7\5--5----5-5---7-7---5/7\5--5----7---7---7---7---5-5---7---7---7---7---5-5------|
A|-3-3---5-5---3/5\3--3----3-3---5-5---3/5\3--3---5---5---5---5----3-3--5---5---5---5----3-3------|
E|------------------------------------------------------------------------------------------------|

e|-------------------------------------------------------------------------------------------------------|
B|-------------------------------------------------------------------------------------------------------|
G|-7-7---5/7\5--5---7-7--5/7\5--5------------------------------2-----------------------12b-10-12-10------|
D|-7-7---5/7\5--5---7-7--5/7\5--5---------------3----------3-3-----------------3--------------------12---|
A|-5-5---3/5\3--3---5-5--3/5\3--3---5-5-----3-3---5--5-5-5---------5-5-----3-3---5--5--------------------|
E|--------------------------------------5-5----------------------------5-5-------------------------------|

e|------------------------------------------------------------------------|
B|------------------------------------------------------------------------|
G|------------------------------2------------------------------2----------|
D|---------------3----------3-3-----------------3----------3-3------------|
A|---5-5-----3-3---5--5-5-5---------5-5-----3-3---5--5-5-5----------------|
E|-------5-5----------------------------5-5-------------------------------|

e|-------------------------------------------------------------------------------------------------------|
B|-------------------------------------------------------------------------------------------------------|
G|-7-7---5/7\5--5---7-7--5/7\5--5------------------------------2-----------------------12b-10-12-10------|
D|-7-7---5/7\5--5---7-7--5/7\5--5---------------3----------3-3-----------------3--------------------12---|
A|-5-5---3/5\3--3---5-5--3/5\3--3---5-5-----3-3---5--5-5-5---------5-5-----3-3---5--5--------------------|
E|--------------------------------------5-5----------------------------5-5-------------------------------|

e|------------------------------------------------------------------------|
B|------------------------------------------------------------------------|
G|------------------------------2------------------------------2----------|
D|---------------3----------3-3-----------------3----------3-3------------|
A|---5-5-----3-3---5--5-5-5---------5-5-----3-3---5--5-5-5----------------|
E|-------5-5----------------------------5-5-------------------------------|


e|---------------------------------------------------------------------------|
B|---------------------------------------------------------------------------|
G|-----------------------------------------------5---------------------------|
D|---------3-------------------3/7-5-5-3-5-5-3/7---7-5\3-5-3-----------------|
A|-3h5-5-5---5-5--3h5-5-5--3h5-------------------------------5---------------|
E|---------------------------------------------------------------------------|

e|---------------------------------------------------------------------------|
B|---------------------------------------------------------------------------|
G|-------------------------------------------------5h7-----------------------|
D|---------3-------------------3/7-5-5-3-5-5-3-5h7-----5-5-------------------|
A|-3h5-5-5---5-5--3h5-5-5--3h5-----------------------------------------------|
E|---------------------------------------------------------------------------|

e|------------------------------------------------------------------------------------------------10-----|
B|-------------------------------------------------------------------10-----10-13p10----10-----10--------|
G|-------10-12-12b-10----12b-10----10----10-12-12b--10--12-12-10-12b----12b----------12----12b-----------|
D|-10h12--------------12--------12----12-----------------------------------------------------------------|
A|-------------------------------------------------------------------------------------------------------|
E|-------------------------------------------------------------------------------------------------------|

e|-------------------------------------------------------------------------------------------------------|
B|--13-13b-10-13-13b-10-13-13b-10-13-13b-10-13-13b-10-13-13b-13b-10--------------10-----10-13p10---------|
G|------------------------------------------------------------------12-12-10-12b----12b------------------|
D|-------------------------------------------------------------------------------------------------------|
A|-------------------------------------------------------------------------------------------------------|
E|-------------------------------------------------------------------------------------------------------|

e|------------------------------------------------------------------------------------10-------------------|
B|----------------------------------------------------------10-----10--------------10----10-13b-10---10----|
G|-12-12b-10-12-12-10---10------------------10----10----12b----12b----12-12-10-12b----------------12---12b-|
D|-------------------12---12-12p10----10-12----12----12----------------------------------------------------|
A|---------------------------------12----------------------------------------------------------------------|
E|---------------------------------------------------------------------------------------------------------|

e|---------------------------------------------------------------------------------------------------------|
B|-----------------------------------------------------------------------13--------------------------------|
G|10-----------10-------10-------10-------10----10-12b-12-12-12p10----12b---12b-10-12-10---10--------------|
D|--12-10------------------------------------12--------------------12-------------------12----12--12--10---|
A|-------10h12----10h12----10h12----10h12---------------------------------------------------------------12-|
E|---------------------------------------------------------------------------------------------------------|

e|------------------------------------------------------------------------------------------|
B|------------------------------------------------------------------------------------------|
G|-7-7---5/7\5--5----5-5---7-7---5/7\5--5-----7---7---7---7--5-5----7---7---7---7--5-5------|
D|-7-7---5/7\5--5----5-5---7-7---5/7\5--5----7---7---7---7---5-5---7---7---7---7---5-5------|
A|-5-5---3/5\3--3----3-3---5-5---3/5\3--3---5---5---5---5----3-3--5---5---5---5----3-3------|
E|------------------------------------------------------------------------------------------|

e|------------------------------------------------------------------------|
B|------------------------------------------------------------------------|
G|------------------------------2------------------------------2----------|
D|---------------3----------3-3-----------------3----------3-3------------|
A|---5-5-----3-3---5--5-5-5---------5-5-----3-3---5--5-5-5----------------|
E|-------5-5----------------------------5-5-------------------------------|

e|------------------------------------------------------------------------|
B|------------------------------------------------------------------------|
G|------------------------------2------------------------------2----------|
D|---------------3----------3-3-----------------3----------3-3------------|
A|---5-5-----3-3---5--5-5-5---------5-5-----3-3---5--5-5-5----------------|
E|-------5-5----------------------------5-5-------------------------------|

e|----------------------------------------------------------------------------------------------------|
B|----------------------------------------------------------------------------------------------------|
G|----------------------------------------------------------------------------------------------------|
D|-7777777-5555555----------3--------------3------7777777-5555555----------3--------------3-----------|
A|-8888888-7777777--3h5-5-5---5-5--3h5-5-5---5-5--8888888-7777777--3h5-5-5---5-5--3h5-5-5---5-5-------|
E|----------------------------------------------------------------------------------------------------|

e|---------------------------------------------------------------------------------------------------------|
B|---------------------------------------------------------------------------------------------------------|
G|----------------------------------------------------------------------------------------------------5h7--|
D|-7777777-5555555----------3--------------3------7777777-5555555----------3-------------3--3h5/7-5h7----5-|
A|-8888888-7777777--3h5-5-5---5-5--3h5-5-5---5-5--8888888-7777777--3h5-5-5---5-5--3h5-5-5--5---------------|
E|---------------------------------------------------------------------------------------------------------|

e|---------------------------------------------------------------------------------------------------------|
B|---------------------------------------------------------------------------------------------------------|
G|-------------------------------------------------------------------------------------5-------------------|
D|-3h5-5b-p3---------3-------------3-------------3---3h5/7-5--10-777--10777--3h5p3-5/7---5--10-777-10-777--|
A|-----------5-5-5-5---5-5-3h5-5-5---5-5-3h5-5-5---5----------8--555--8-555 ----------------8--555-8--555--|
E|---------------------------------------------------------------------------------------------------------|

e|---------------------------------------------------------------------------------------------------------|
B|-10-10---------------------------------------------------------------------10-13p10----------------------|
G|-------12bp10-12-12bp10-------------10--------------------10----10-12--12b----------12-10-12--12bp10-----|
D|------------------------12-12-12-12----12-12--10h12-12-12----12------------------------------------------|
A|---------------------------------------------------------------------------------------------------------|
E|---------------------------------------------------------------------------------------------------------|

e|-----------------------------10-----------------------10-------------------------------------------------|
B|--------------------------10----10-13p10----10-----10----13-13b-10-13b-13b-10--------------13------------|
G|-------------10-------12b----------------12----14b----------------------------12-12-10-12b----12b-10-----|
D|-12-12-12-12----12-12------------------------------------------------------------------------------------|
A|---------------------------------------------------------------------------------------------------------|
E|---------------------------------------------------------------------------------------------------------|

e|---------------------------------------------------------------------------------------------------------|
B|---------------------------------------------------------------------------------------------------------|
G|-10-------12-10-------------------------10----------------------5-----------------5----------------------|
D|----12-10-------12-10----------10-10h12----12-12-12---5-5-3-5/7---7p5\3-5-5-3-5/7---7p5\3----------------|
A|----------------------12-10h12---------------------------------------------------------------------------|
E|---------------------------------------------------------------------------------------------------------|

e|----------------------------------------------------10---------------------------------------------------|
B|------------------------------15-13-10-----------10----10-13b--------------------------------------------|
G|--------------------------------------12-10--12b-------------12rb-10------12p10----10----------10--12p10-|
D|---------3----------3---3--------------------------------------------12-12------12---12p10---10--12------|
A|-3h5-5-5---5-5--3h5---5---5-5--------------------------------------------------------------12------------|
E|---------------------------------------------------------------------------------------------------------|

e|--------------10-----------------------------------------------------10----------10----------10----------|
B|-----------10----10--13b-13b-13b-13b-13b-10-13-13-13-10h13p10-----------13p10-------13p10-------13p10----|
G|----10-12b----------------------------------------------------12--12b---------12b---------12b--------12b-|
D|-12------------------------------------------------------------------------------------------------------|
A|---------------------------------------------------------------------------------------------------------|
E|---------------------------------------------------------------------------------------------------------|

E|-----10-----------10----------10-----------10----------10-----------10----------10-----------------------|
B|--------13p10--------13p10-------13p10--------13p10-------13p10--------13p10-------13p10-----------------|
G|-------------12b----------12b---------12b-----------12b---------12b---------12b----------12b-------------|
D|---------------------------------------------------------------------------------------------------------|
A|---------------------------------------------------------------------------------------------------------|
E|---------------------------------------------------------------------------------------------------------|

e|-----------------------------------------------------|
B|------------------------------------------------6----|
G|----------------------------------------5-------7----|
D|-7---5----10-7-7-7--10-7-7-7---3hp3-5/7---5-----7----|
A|-8---7----8--5-5-5--8--5-5-5--------------------5----|
E|-----------------------------------------------------|

This song is originally in D (DGCFAD)tuning and played with 2 guitars.
However this is an adjusted tab so that it can be played in standard tuning and with just one guitar.

************************************

| /   slide up
| \   slide down
| h   hammer-on
| p   pull-off
| ~   vibrato
| +   harmonic
| x   Mute note
| b   Bend
| pb  Pre-bend
| br  Bend release
| pbr Pre-bend release
| brb Bend release bend
Добавлено: 29.05.2016
Другие материалы по этой песне:

Страница создана 25.05.2012
http://primanota.ru/graveyard/hisingen-blues-chords.htm
Привет, Гость.
Предлагаем пройти революционный курс по гитаре.
Подарок от PrimaNota.Ru, забирай!