PrimaNota.ru - самый крупный в мире бесплатный архив песенных текстов, аккордов, табулатур и нот


Graveyard - The Apple The Tree - таба, видео

Регистрация Запомнить меня
Войти через:  Facebook Google Twitter Vk Yandex Mail.ru

Graveyard - The Apple The Tree - таба, видео

Печатать
Просмотров: 104
Уроки эстрадного вокала в Санкт-Петербурге
The Apple & the Tree by Graveyard from the album Innocence & Decadence.

The tuning is DGCFAD.


Intro Lick
e-|---------------------------------------------------|
B-|--------10-----------------------------------------|
G-|--10h12----10h12--10-------------------------------|
D-|---------------------12--------10------------------|
A-|-------------------------10h12-----8h10-8----------|
E-|------------------------------------------10-------|

Verse Chords
e-|--10-10-10-10-10-----8--8-----8-8------------------|
B-|--10-10-10-10-10-----8--8-----8-8------------------|
G-|--10-10-10-10-10-----9--9-----7-7------------------|
D-|--12-12-12-12-12-----10-10----8-8------------------|
A-|--12-12-12-12-12-----10-10----8-8------------------|
E-|--10-10-10-10-10-----8--88----6-6------------------|
Listen to the song and try to find the rhythm.

Chorus Chords
e-|--10-10-10---------------12-12-12--10-10-10-----------------|
B-|--11-11-11---------------13-13-13--11-11-11-----------------|
G-|--12-12-12---10-10-10----14-14-14--12-12-12---10-10-10------|
D-|--12-12-12---10-10-10----14-14-14--12-12-12---10-10-10------|
A-|--10-10-10---8--8-8------12-12-12--10-10-10---8--8--8-------|
E-|------------------------------------------------------------|

e-|------------------------------------------------------------|
B-|------------------------------------------------------------|
G-|-------------10-10-10---------------10-10-10----------------|
D-|--12-12-12---10-10-10----12-12-12---10-10-10---12-12-12-----|
A-|--12-12-12---8--8--8-----12-12-12---8--8--8----12-12-12-----|
E-|--10-10-10---------------10-10-10--------------10-10-10-----|
Not completely sure about some of these, try to figure out what sounds best for yourself.

Correct me if you think something is wrong or got something to add. Thanks!
Добавлено: 11.06.2016
Другие материалы по этой песне:
  • Аккорды и текст

Страница создана 11.06.2016
http://primanota.ru/graveyard/apple-tree-chords.htm
Привет, Гость.
Предлагаем пройти революционный курс по гитаре.
Подарок от PrimaNota.Ru, забирай!