PrimaNota.ru - самый крупный в мире бесплатный архив песенных текстов, аккордов, табулатур и нот


Graveyard - An Industry Of Murder - таба, видео

Регистрация Запомнить меня
Войти через:  Facebook Google Twitter Vk Yandex Mail.ru

Graveyard - An Industry Of Murder - таба, видео

Печатать
Просмотров: 33
GRAVEYARD
"An Industry of Murder"
From the album "Lights Out" (2012)

Tuning: Drop D (D A D G B E)
Tempo: 140 bpm

 INTRO
 Guitar 1
|-----------------|-----------------|
|-----------------|-----------------|
|-----2-----3-----|-----------------|
|-0-0---0-0---0-0-|-3-0-0-2-0-0---0-|
|-----------------|-------------4---|
|-----------------|-----------------|

 Guitar 2
  Dm         C          Bb         A
|-5--------|-3--------|-1--------|-0----|
|-6--------|-5--------|-3--------|-2----|
|-7--------|-5--------|-3--------|-2----|
|-7--------|-5--------|-3--------|-2----|
|-5--------|-3--------|-1--------|-0----|
|----------|----------|----------|------|

  Dm         C          A          Bb
|-5--------|-3--------|-0--------|-1----|
|-6--------|-5--------|-2--------|-3----|
|-7--------|-5--------|-2--------|-3----|
|-7--------|-5--------|-2--------|-3----|
|-5--------|-3--------|-0--------|-1----|
|----------|----------|----------|------|


|------------------------|
|------------------------|
|-7-8-7h8p7---6---5------|
|-----------8---7---6----|
|------------------------|
|------------------------|


 VERSE
 Guitar 1
|-----------------|-----------------|
|-----------------|-----------------|
|-----2-----3-----|-----------------|
|-0-0---0-0---0-0-|-3-0-0-2-0-0---0-|
|-----------------|-------------4---|
|-----------------|-----------------|

 Guitar 2
|-5--------|-3--------|-0--------|-1----|
|-6--------|-5--------|-2--------|-3----|
|-7--------|-5--------|-2--------|-3----|
|-7--------|-5--------|-2--------|-3----|
|-5--------|-3--------|-0--------|-1----|
|----------|----------|----------|------|


                                                      ~~
|-5--------|----------|-------------------------|-------------|
|-6--------|-9--------|-------14-------13-------|-14----------|
|-7--------|-7--------|-14-15----15-14----14-15-|----14-------|
|-7--------|-6--------|-------------------------|-------------|
|-5--------|-8--------|-------------------------|-------------|
|----------|----------|-------------------------|-------------|


 CHORUS
 Both Guitars
|----------------|---------------|----------------|----------------|
|----------------|---------------|----------------|----------------|
|-----7----------|-----7---------|-----7----------|----------------|
|---7----8-7-5-7-|---7----8-7----|---7----8-7-5-7-|-7---6---5------|
|-5--------------|-5----------8--|-5--------------|---8---7---6-5--|
|----------------|---------------|----------------|----------------|


 2ND CHORUS
 Both Guitars
|-----------------|----------------|
|-----------------|----------------|
|-7-7-7-7-7-7-7-7-|-7-----10----9--|
|-7-7-7-7-7-7-7-7-|-7-5-7-10---10--|
|-5-5-5-5-5-5-5-5-|-5--------------|
|-----------------|----------------|

 RIFF AFTER 2ND CHORUS
 Both Guitars
|--------------|----------------|--------------|----------------|
|---------6----|----------------|---------6----|----------------|
|---------7----|----------------|---------7----|----------------|
|---------7----|----------------|---------7----|-7---6---5------|
|---------5----|---------5-4-5--|---------5----|---8---7---6-5--|
|-0-0-0-0------|-0-0-0-0--------|-0-0-0-0------|----------------|

 Guitar 1
|------------------|------------------------|
|----------6-------|------------------------|
|----------7-------|------------------------|
|----------7-------|------------------------|
|----------5-------|----------5----4--5-----|
|-0-0-0-0----------|-0-0-0-0----------------|
|
|Guitar 2
|---------10-------|----------8-------7-----|
|---------13b15----|---------11b13---10b12--|
|------------------|------------------------|
|------------------|------------------------|
|------------------|------------------------|
|------------------|------------------------|


|---------------------|-------------------------------|
|----------6----------|-------------------------------|
|----------7----------|-------------------------------|
|----------7----------|--7--------6--------5----------|
|----------5----------|--------8-----7--------6----5--|
|-0-0-0-0-------------|-------------------------------|
|
|
|---------10----------|-------------------------------|
|---------13b15---13--|-------13-10-13-10----13b15----|
|---------------------|-12b14-------------12----------|
|---------------------|-------------------------------|
|---------------------|-------------------------------|
|---------------------|-------------------------------|


|------------------|------------------------|
|----------6-------|------------------------|
|----------7-------|------------------------|
|----------7-------|------------------------|
|----------5-------|----------5----4--5-----|
|-0-0-0-0----------|-0-0-0-0----------------|
|
|
|---------13-------|---------13------12-----|
|---------16b18----|---------16b18---15b17--|
|------------------|------------------------|
|------------------|------------------------|
|------------------|------------------------|
|------------------|------------------------|


|-----------------------|--------------------------|
|----------6------------|--------------------------|
|----------7------------|--------------------------|
|----------7------------|--7--------6-----5--------|
|----------5------------|--------8-----7-------6-5-|
|-0-0-0-0---------------|--------------------------|
|
|
|---------13------------|-------10-----------------|
|---------16b18---13p10-|----------13-10-13b15-----|
|-----------------------|-12b14--------------------|
|-----------------------|--------------------------|
|-----------------------|--------------------------|
|-----------------------|--------------------------|

 Both Guitars
|-----------------|----------------|
|-----------------|----------------|
|-7-7-7-7-7-7-7-7-|-7-----10----9--|
|-7-7-7-7-7-7-7-7-|-7-5-7-10---10--|
|-5-5-5-5-5-5-5-5-|-5--------------|
|-----------------|----------------|


 SOLO (Guitar 1 continues previous riff)
|-----------------------------------|--------------------------------------------|
|-3----------------5----------------|-6------------------8-----------------------|
|-5b7==5-5-5-5-5-5-7b9==7-7-7-7-7-7-|-8b10==8-8-8-8-8-8-10b12==10-10-10-10-10-10-|
|-----------------------------------|--------------------------------------------|
|-----------------------------------|--------------------------------------------|
|-----------------------------------|--------------------------------------------|
 Hold bends while strumming, rock wah pedal back and forth rhythmically


|---------------------------------------------------|----------------------------|
|-10-----------------------13-----------------------|-15-------------------------|
|-12b14==12-12-12-12-12-12-15b17==15-15-15-15-15-15-|-17b19==17r-14-17-17b19-----|
|---------------------------------------------------|----------------------------|
|---------------------------------------------------|----------------------------|
|---------------------------------------------------|----------------------------|


                  ~~                                  ~~
|-----------------------|---------------------------------|
|-13b15r13-10-----------|---------------------------------|
|-------------12-14-----|-12b14r12-10----10-12----10-10---|
|-----------------------|-------------12-------12---------|
|-----------------------|---------------------------------|
|-----------------------|---------------------------------|


                                           ~~~~~
|---------------------|-----------------|----------|
|---------------------|---------10--13--|-13b15----|
|---10-------------10-|-10--12----------|----------|
|------12-10-10-12----|-----------------|----------|
|---------------------|-----------------|----------|
|---------------------|-----------------|----------|


Tablature Legend
----------------
 h   - hammer-on
 p   - pull-off
 b   - bend
 pb  - pre-bend
 r   - bend release (if no number after the r, then release immediately)
 /\  - slide into or out of (from/to "nowhere")
 s   - legato slide
 S   - shift slide
  - natural harmonic
[n]  - artificial harmonic
n(n) - tapped harmonic
 ~   - vibrato
 tr  - trill
 T   - tap
 TP  - trem. picking
 PM  - palm muting
\n/  - tremolo bar dip; n = amount to dip
 \n  - tremolo bar down
 n/  - tremolo bar up
/n\  - tremolo bar inverted dip
 =   - hold bend; also acts as connecting device for hammers/pulls
 <>  - volume swell (louder/softer)
 x   - on rhythm slash represents muted slash
 o   - on rhythm slash represents single note slash

Misc Legend
-----------
 |  - bar
||  - double bar
||o - repeat start
o|| - repeat end
*|  - double bar (ending)
 :  - bar (freetime)
 $  - Segno
 &  - Coda
Tempo markers -  = BPM(8/16=s8/s16), where s8 = swing 8ths, s16 = swing 16ths
Добавлено: 11.06.2016
Другие материалы по этой песне:
  • Аккорды и текст

Страница создана 11.06.2016
http://primanota.ru/graveyard/an-industry-of-murder-chords.htm
Привет, Гость.
Предлагаем пройти революционный курс по гитаре.
Подарок от PrimaNota.Ru, забирай!