PrimaNota.ru - самый крупный в мире бесплатный архив песенных текстов, аккордов, табулатур и нот


Graveyard - Aint Fit To Live Here - таба, видео

Регистрация Запомнить меня
Войти через:  Facebook Google Twitter Vk Yandex Mail.ru

Graveyard - Aint Fit To Live Here - таба, видео

Печатать
Просмотров: 97
-------------------------------------------------------------------------------
                             GRAVEYARD - Ain't Fit to Live Here
-------------------------------------------------------------------------------

Tuning: 1 Step Down (DGCFAd)

For better feel of the rythm, I added dots below the measures to indicate the beats.
Hope you enjoy!



Verse

d|-------------------------|------------------------|
A|-------------------------|------------------------|
F|-------------5-----------|------------------------|
C|-5h7-7-7-7-7---7---7---7-|-5h7-7-7-7-7-----5------|    repeat x8
G|-------------------------|-------------7----------|
D|-------------------------|------------------------|
   o     o     o     o       o     o     o     o


instead of the 4th repeat, the lead guitar plays this lick:

d|-------------------------|------5------5---------------|
A|-------------------------|-----------------------------|
F|-------------5-----------|-7b9----7b9----7b9r7-5-7-5---|
C|-5h7-7-7-7-7---7---7---7-|---------------------------7-|
G|-------------------------|-----------------------------|
D|-------------------------|-----------------------------|
   o     o     o     o       o      o      o       o


Chorus

d|-------------|-------------|------------------------|-------------------------|
A|-------------|-------------|------------------------|-------------5-8-5-------|
F|-------------|-------------|-------------5--------5-|-7b9r7-5-----------7-5---|
C|-------------|-------------|-5h7-7-7-7-7------7-----|---------7---------------|
G|-7----10-----|-3-----5-----|------------------------|-------------------------|
D|-5-----8-----|-1-----3-----|------------------------|-------------------------|
   o  o  o  o    o  o  o  o    o     o     o    o       o       o     o     o 

d|-------------|-------------|------------------------|-------------------------|
A|-------------|-------------|------------------------|-------------------------|
F|-------------|-------------|-------------5----------|-5---------5-7b9r7-5-----|
C|-------------|-------------|-5h7-7-7-7-7------7-----|---7-5---5-----------7---|
G|-7----10-----|-3-----5-----|------------------------|-------7-----------------|
D|-5-----8-----|-1-----3-----|------------------------|-------------------------|
   o  o  o  o    o  o  o  o    o     o     o    o       o     o     o       o

d|-------------|-------------|------------------------|-------------------------|
A|-------------|-------------|------------------------|-------------5-8-5-------|
F|-------------|-------------|-------------5--------5-|-7b9r7-5-----------7-5---|
C|-------------|-------------|-5h7-7-7-7-7------7-----|---------7---------------|
G|-7----10-----|-3-----5-----|------------------------|-------------------------|
D|-5-----8-----|-1-----3-----|------------------------|-------------------------|
   o  o  o  o    o  o  o  o    o     o     o    o       o       o     o     o

d|-------------|-------------|------------------|------------------------------|
A|-------------|-------------|------------------|------------------------------|
F|-------------|-------------|------------------|------------------------------|
C|-------------|-------------|-10---9---7--12---|-12/14-14-14-14-14-14---------|
G|-7----10-----|-3-----5-----|--8---7---5--10---|-10/12-12-12-12-12-12---------|
D|-5-----8-----|-1-----3-----|------------------|------------------------------|
   o  o  o  o    o  o  o  o     o   o   o   o      o        o        o     o



Verse

d|-------------------------|------------------------|
A|-------------------------|------------------------|
F|-------------5-----------|------------------------|
C|-5h7-7-7-7-7---7---7---7-|-5h7-7-7-7-7-----5------|    repeat x8
G|-------------------------|-------------7----------|
D|-------------------------|------------------------|
   o     o     o     o       o     o     o     o


Chorus

d|-------------|-------------|------------------------|-------------------------|
A|-------------|-------------|------------------------|-------------5-8-5-------|
F|-------------|-------------|-------------5--------5-|-7b9r7-5-----------7-5---|
C|-------------|-------------|-5h7-7-7-7-7------7-----|---------7---------------|
G|-7----10-----|-3-----5-----|------------------------|-------------------------|
D|-5-----8-----|-1-----3-----|------------------------|-------------------------|
   o  o  o  o    o  o  o  o    o     o     o    o       o       o     o     o 

d|-------------|-------------|------------------------|-------------------------|
A|-------------|-------------|------------------------|-------------------------|
F|-------------|-------------|-------------5----------|-5---------5-7b9r7-5-----|
C|-------------|-------------|-5h7-7-7-7-7------7-----|---7-5---5-----------7---|
G|-7----10-----|-3-----5-----|------------------------|-------7-----------------|
D|-5-----8-----|-1-----3-----|------------------------|-------------------------|
   o  o  o  o    o  o  o  o    o     o     o    o       o     o     o       o

d|-------------|-------------|------------------------|-------------------------|
A|-------------|-------------|------------------------|-------------5-8-5-------|
F|-------------|-------------|-------------5--------5-|-7b9r7-5-----------7-5---|
C|-------------|-------------|-5h7-7-7-7-7------7-----|---------7---------------|
G|-7----10-----|-3-----5-----|------------------------|-------------------------|
D|-5-----8-----|-1-----3-----|------------------------|-------------------------|
   o  o  o  o    o  o  o  o    o     o     o    o       o       o     o     o

d|-------------|-------------|------------------|------------------------------|
A|-------------|-------------|------------------|------------------------------|
F|-------------|-------------|------------------|------------------------------|
C|-------------|-------------|-10---9---7--12---|-12/14-14-14-14-14-14---------|
G|-7----10-----|-3-----5-----|--8---7---5--10---|-10/12-12-12-12-12-12---------|
D|-5-----8-----|-1-----3-----|------------------|------------------------------|
   o  o  o  o    o  o  o  o     o   o   o   o      o        o        o     o



Bridge

d|--------------------------|---------------------------|
A|--------------------------|---------------------------|
F|-8-7-5---5---5------------|-7------------8------------|
C|-------7---7---7----7-----|---7----7-------7----7-----|   repeat x10
G|--------------------------|---------------------------|
D|--------------------------|---------------------------|
   o     o     o      o       o      o     o      o



Solo

d|---------------------------------------------|
A|------------5------------------------10------|
F|-7br-5------5--------5-7br-5------/9---------|
C|-------7---------7-----------7---------------|    repeat x4
G|---------------------------------------------|
D|---------------------------------------------|
   o     o    o    o     o     o     o    o



Verse
d|-------------------------|------------------------|
A|-------------------------|------------------------|
F|-------------5-----------|------------------------|
C|-5h7-7-7-7-7---7---7---7-|-5h7-7-7-7-7-----5------|    repeat x4
G|-------------------------|-------------7----------|
D|-------------------------|------------------------|
   o     o     o     o       o     o     o     o



Chorus

d|-------------|-------------|------------------------|-------------------------|
A|-------------|-------------|------------------------|-------------5-8-5-------|
F|-------------|-------------|-------------5--------5-|-7b9r7-5-----------7-5---|
C|-------------|-------------|-5h7-7-7-7-7------7-----|---------7---------------|
G|-7----10-----|-3-----5-----|------------------------|-------------------------|
D|-5-----8-----|-1-----3-----|------------------------|-------------------------|
   o  o  o  o    o  o  o  o    o     o     o    o       o       o     o     o 

d|-------------|-------------|------------------------|-------------------------|
A|-------------|-------------|------------------------|-------------------------|
F|-------------|-------------|-------------5----------|-5---------5-7b9r7-5-----|
C|-------------|-------------|-5h7-7-7-7-7------7-----|---7-5---5-----------7---|
G|-7----10-----|-3-----5-----|------------------------|-------7-----------------|
D|-5-----8-----|-1-----3-----|------------------------|-------------------------|
   o  o  o  o    o  o  o  o    o     o     o    o       o     o     o       o

d|-------------|-------------|------------------------|-------------------------|
A|-------------|-------------|------------------------|-------------5-8-5-------|
F|-------------|-------------|-------------5--------5-|-7b9r7-5-----------7-5---|
C|-------------|-------------|-5h7-7-7-7-7------7-----|---------7---------------|
G|-7----10-----|-3-----5-----|------------------------|-------------------------|
D|-5-----8-----|-1-----3-----|------------------------|-------------------------|
   o  o  o  o    o  o  o  o    o     o     o    o       o       o     o     o

d|-------------|-------------|------------------|------------------------------|
A|-------------|-------------|------------------|------------------------------|
F|-------------|-------------|------------------|------------------------------|
C|-------------|-------------|-10---9---7--12---|-12/14-14-14-14-14-14---------|
G|-7----10-----|-3-----5-----|--8---7---5--10---|-10/12-12-12-12-12-12---------|
D|-5-----8-----|-1-----3-----|------------------|------------------------------|
   o  o  o  o    o  o  o  o     o   o   o   o      o        o        o     o





************************************

| /   slide up
| \   slide down
| h   hammer-on
| p   pull-off
| b   Bend
| br  Bend release

************************************
Добавлено: 30.11.2013
Другие материалы по этой песне:

Страница создана 23.06.2012
http://primanota.ru/graveyard/aint-fit-to-live-here-chords.htm
Привет, Гость.
Предлагаем пройти революционный курс по гитаре.
Подарок от PrimaNota.Ru, забирай!