PrimaNota.ru - самый крупный в мире бесплатный архив песенных текстов, аккордов, табулатур и нот


Graveyard Bbq - Cheat On The Church - таба, бас-таба, видео

Регистрация Запомнить меня
Войти через:  Facebook Google Twitter Vk Yandex Mail.ru

Graveyard Bbq - Cheat On The Church - таба, бас-таба, видео

Печатать
Просмотров: 96
Уроки эстрадного вокала в Санкт-Петербурге
Graveyard BBQ
Cheat On The Church
Greatest Hits:Volume 1

Tuning:DGDGBD

Intro (with slide) x2
|-------------15-------14-------13-----12--|
|--12---12/15----15/14----14/13---11---12--|
|--12----------------------------------12--|
|--12----------------------------------12--|
|--12----------------------------------12--|
|--12----------------------------------12--|

Solo 1
|---------------------------------------------------------------------|
|--------------11----------------11----------------------11-----------|
|--12-12\10/12----12-10/12-10-12----12-10-12-10-12-10-12----12-10-12--|
|---------------------------------------------------------------------|
|---------------------------------------------------------------------|
|---------------------------------------------------------------------|

|---------------------------------------------------------------------|
|---------------------------------------------------------------------|
|--3-0-5-0-6-0-5-0-6-0-5-0-15-0-17-0-16-0-17-0-15-0-17-0-16-0-17-0//--|
|---------------------------------------------------------------------|
|---------------------------------------------------------------------|
|---------------------------------------------------------------------|

Verse x2
|------------------------------------------------------|
|------------------------------------------------------|
|----0-0-0-5/3----0-0-0-3----0-0-0-5/3----0-0----------|
|----0-0-0-5/3----0-0-0-3----0-0-0-5/3----0-0----------|
|----0-0-0-5/3----0-0-0-3----0-0-0-5/3----0-0-------0--|
|--3------------3----------3------------3-----0--0--6--|

Chorus x4
|-------------15-------14-------13-----12--|
|--12---12/15----15/14----14/13---11---12--|
|--12----------------------------------12--|
|--12----------------------------------12--|
|--12----------------------------------12--|
|--12----------------------------------12--|

Solo 2 (with slide)
|--12//////24-----------------------------12-12--|
|--12//////24--12-11----12-11-------11-12----12--|
|--------------------12-------12-12----------12--|
|------------------------------------------------|
|------------------------------------------------|
|------------------------------------------------|
                                         27(slide beyond the 22,24th fret)
|-----3-----------------------------13------------------------------------|
|---3---6-3-5-3---3---------------13--------------------------------27-27-|
|-5-------------6---6-3-5-3---3-15----16-13-14-13--13---------------------|
|---------------------------5--------------------16--16-13-15-13--13------|
|---------------------------------------------------------------15--------|
|-------------------------------------------------------------------------|

Verse x2
|------------------------------------------------------|
|------------------------------------------------------|
|----0-0-0-5/3----0-0-0-3----0-0-0-5/3----0-0----------|
|----0-0-0-5/3----0-0-0-3----0-0-0-5/3----0-0----------|
|----0-0-0-5/3----0-0-0-3----0-0-0-5/3----0-0-------0--|
|--3------------3----------3------------3-----0--0--6--|

Pre-Breakdown x4
|-------------------------|
|-------------------------|
|----0--------------------|
|----0--------------------|
|----0----------3-4-5-----|
|--3---0--3-4-5-------3b--|

Breakdown x4
|-------------------------|
|-------------------------|
|----0--------------------|
|----0----------3-4-5-----|
|--5-0-2--5-6-7-3-4-5-----|
|--3---0--3-4-5-------3b--|

Bridge x4
|-------------------------------------|
|-------------------------------------|
|-------------------------------------|
|-------------------------------------|
|------------------3-4-5--------------|
|--3-5-5-3-3-4-4-5-------3-3-3-3-3-3--|

Main Solo (with wah)
|------------------------------------------------------------------|
|------------------------------------------------------------------|
|--------------------------------------------------------15-13-15--|
|------------------------------------------------------13----------|
|-----------------13-14-15--------------------13-14-15-------------|
|--13-15-13-14-15----------13--13-15-13-14-15----------------------|

|--13----13----13----13----13----13----13--|
|------------------------------------------|
|-----15----15----15----15----15----15-----|
|------------------------------------------|
|------------------------------------------|
|------------------------------------------|

|-----------------------------------------|-------------|
|-----------------------------------------|-------------|
|--15-15-13----15----13----------15-------|-14-15-16-x5-|
|-----------15----15----15-13-15----15-16-|-------------|
|-----------------------------------------|-------------|
|-----------------------------------------|-------------|

|-----------------------------------------------------------|
|-----------------------------------------------------------|
|--16--16-0-16-0-17-0-0-17-0-0-17-0-15-0-15-0-12-0-10-0-12--|
|-----------------------------------------------------------|
|-----------------------------------------------------------|
|-----------------------------------------------------------|

Pre-Breakdown x4
|-------------------------|
|-------------------------|
|----0--------------------|
|----0--------------------|
|----0----------3-4-5-----|
|--3---0--3-4-5-------3b--|

Bridge x8
|-------------------------------------|
|-------------------------------------|
|-------------------------------------|
|-------------------------------------|
|------------------3-4-5--------------|
|--3-5-5-3-3-4-4-5-------3-3-3-3-3-3--|

Bless these Children
Blessed he who BBQ's 
Blessed he who giveth to thee
Alright folks, I want you to take a step back
I want you to dig deep in those pockets
I WANT YOU TO GIVE!!!

I am your father
I am your priest
Your only Messiah
To say the least
So donate and give, give generously
Give all you got, GIVE IT TO ME!

I run this place, the House of God
With your new God “GRILL”, your dreams fulfilled
If these walls could talk, the stories they'd tell
And if they did, I'd be in a whole lotta HELL!

So I'm close to the pope, ya know what that means
I can grab and grope and do as I please
Gone into confession, my gamblins in session
Now tell me your sins, 3 cherries I win!

I cheat on the church and embezzle with Greed
I cheat on the church and I take what I need
I cheat on the church and I do as I please
I cheat on the church, boy get down on your knees!

GUITAR HERO GUITAR SOLO!!!!!!!!!!!!!!!!!

CHEAT ON THE CHURCH!!!

http://www.graveyardbbq.com/

Добавлено: 14.05.2012
Другие материалы по этой песне:

Страница создана 23.03.2012
http://primanota.ru/graveyard-bbq/cheat-on-the-church-chords.htm
Привет, Гость.
Предлагаем пройти революционный курс по гитаре.
Подарок от PrimaNota.Ru, забирай!