PrimaNota.ru - самый крупный в мире бесплатный архив песенных текстов, аккордов, табулатур и нот


Gravenhurst - Nicole - таба, видео

Регистрация Запомнить меня
Войти через:  Facebook Google Twitter Vk Yandex Mail.ru

Gravenhurst - Nicole - таба, видео

Печатать
Просмотров: 116
Nicole, by Gravenhurst

From the album 'Fires in Distant Buildings', and from the soundtrack to 'This is England'.

Tabbed by Andy R (andyjmr@hotmail.com)


Notes
=====
Standard tuning.

Capo on the 4th Fret. The notes and chords are relative to the capo.

Song is in 3/4 time (3 beats per bar).

It takes some practice to play and sing at the same time, as some notes and vocals are 
before or after the beat
(it was written using triplets, giving it that "swing" feeling). Try playing it slowly 
first to get a feel for it,
then start adding vocals and getting up to speed. The second verse is sung differently 
the first. You need to hear
the song a few times to get the hang of it.

If you want a better understanding of the triplet timing, check out the tab I made using 
Pro.
It's on ultimate-guitar.com  ... Guitar Pro is a free demo download if you need it.

The first 8 bars of the verse are identical to the second 8. I tabbed them out in full 
it makes the lyrics look
a lot neater.


Tablature
=========
(0) - a note in brackets means play it very lightly.
(x) - a dead note, play it muted
 h  - hammer on
 p  - pull off


Song Structure
==============

Intro - play the first 8 bars of the verse twice

Verse
Chorus
Verse
Chorus - instead of the last bar, just hit the 6th string on the 3rd fret

Bridge

Chorus - minus the last bar
Chorus - minus the last 2 bars

Coda - play the last part of the chorus ("from the moment we met" etc) - but instead of 
last 2 bars
       just play an open 2nd string.


I hope you enjoy it!

      VERSE

      Em7                                                                    Gsus4
E||-------------------------|--------------------|------------------------|------------------------|
B||--------------------3----|--------------------|-----(3)-----------(0)--|--------(3)----------3--|
G||-------------0-----------|-----------------0--|------------------------|------------------0-----|
D||--------(2)-----2--------|-------2----(2)-----|-------------0----------|-------------0----------|
A||-------------------------|--------------------|------------------------|--3---------------------|
E||---0---------------------|--------------------|--0-------2-----3-------|------------------------|
   1: Find  me     the ca-       p- tain      and   tell    him   I          want        
   to
   2:   The uni-   versal      dance  the black ro- mance         of         ru-         
   nning


    G
|-------------------|-------------------|------------------------|--------------------|
|----------------3--|--3----------------|------------------------|--------------------|
|-------------------|-----0----------0--|-----0-----0------------|----------0---------|
|-------------------|--------0----0-----|------------------------|-------------0------|
|---2---------------|-------------------|--------0------0h2-(x)--|--------------------|
|--------3----------|-------------------|--3---------------------|--2-------------3---|
 1: know
 2: prey


|-------------------------|--------------------|------------------------|------------------------|
|--------------------3----|--------------------|-----(3)-----------(0)--|--------(3)----------3--|
|-------------0-----------|-----------------0--|------------------------|------------------0-----|
|--------(2)-----2--------|-------2----(2)-----|-------------0----------|-------------0----------|
|-------------------------|--------------------|------------------------|--3---------------------|
|---0---------------------|--------------------|--0-------2-----3-------|------------------------|
 1: Just  who    is  st-     eer- ing       and   who's   mere- ly         hol-          
 ding
 2:   The slowing down       the  giving    in              the final      gi-           
 ve  a-


|-------------------|-------------------|------------------------|--------------------|
|----------------3--|--3----------------|------------------------|--------------------|
|-------------------|-----0----------0--|-----0-----0------------|----------0---------|
|-------------------|--------0----0-----|------------------------|-------------0------|
|---2---------------|-------------------|--------0------0h2-(x)--|--------------------|
|--------3----------|-------------------|--3---------------------|--2-------------3---|
 1: on                                                                         and
 2: way                                                                        I


|----------------------|--------------------|------------------------|------------------------|
|-------------------3--|--------------------|-----(3)-----------(0)--|--------(3)----------3--|
|-------------0--------|-----------------0--|------------------------|------------------0-----|
|--------(2)-----2-----|-------2----(2)-----|-------------0----------|-------------0----------|
|----------------------|--------------------|------------------------|--3---------------------|
|---0------------------|--------------------|--0-------2-----3-------|------------------------|
 1: when  the    next    wave                  is      the   last       wave            I'll
 2: cry   for    mer-    cy              you   stare   back  blank-     ly               
 I


                                                                D
|--------------------|-------------------|-------------------|--2----2-----3---0----|
|-----------------3--|----------------3--|----------------3--|--3-------------------|
|-----------0--------|----------0--------|----------0--------|--2-------------------|
|--------------0-----|-------------0-----|-------------0-----|--0-------0-----------|
|---2----------------|--0----------------|-------------------|----------------------|
|--------------------|-------------------|--3----------------|----------------------|
 1. drag       him      down-      wards    to            the   en-        gine
 2. want       to       jump       but      if          you’re       push- ing


    C                                      Am                  Asus2              G
|---0-----------------|-----------------|-------------------|------------------|-------------------|
|---1-------------1---|-----------------|----------------1--|---------------0--|-------------------|
|---0------0----------|-----------------|----------2--------|---------2--------|----------0-----0--|
|---2---------2-------|-----------------|-------2-----------|------------2-----|-------0-----0-----|
|---3-----------------|--3--------3--2--|--0----------0-----|------0-----------|-------------------|
|---------------------|-----------------|-------------------|------------------|--3----------------|
 1: room                                              and     ne-  ver   let      go
 2: me                                                I'll    hold on    tight-   ly


|---------------------|-----------------|
|---------------------|-----------------|
|----------0----------|-----------0-----|
|-------0----------0--|--------------0--|
|--------------0h2----|-----------------|
|--3------------------|--3--------------|

   CHORUS

   G   Am7  G/B      C/G                                       G6
|-----------------|--3-----------------|--3--------------3--|--3----------------|
|--0----1----3----|-----1-----------1--|-----1--------------|-----0-------------|
|--0----0----0----|--------0-----0-----|--------0-----0-----|----------------0--|
|--0----2----0----|-----------2--------|-----------2--------|--------2----2-----|
|--2----0----2----|--------------------|--------------------|-------------------|
|-----------------|--------------------|--------------------|-------------------|
                     Ooooo -              ooooh       Ni-      cole


|-----------------|--3-----------------|--3--------------3--|--3----------------|
|-----------------|-----1-----------1--|-----1--------------|-----0-------------|
|----(0)----------|--------0-----0-----|--------0-----0-----|----------------0--|
|-----------------|-----------2--------|-----------2--------|--------2----2-----|
|-----------------|--------------------|--------------------|-------------------|
|--0-----2----3---|--------------------|--------------------|-------------------|
                     Ooooo -              ooooh       Ni-      cole


                       D                    C               Cadd9                Am      
      G
|-------------------|--2-----------3--0--|--0------------|--------------0-----|--------------------|
|-------------------|--3-----------------|--1------------|--3-----3--------1--|--1---------1h3--0--|
|------------0------|--2--------2--------|--0------------|--0-----------------|--2---------2----0--|
|--2----(2)-----2---|--0-----------------|--2----2-------|--0--------0--------|--2------2-------0--|
|-------------------|--------0-----------|---------------|--2-----------------|--0-----------------|
|-------------------|--------------------|---------------|--------------------|--------------------|
              from the mo-   ment  we       met       we    let it      get      out    
con- tr-


   G                     G                     G                     G
|---------------------|---------------------|---------------------|---------------------|
|---------------------|------------------0--|------------------0--|---------------------|
|------------0-----0--|------------0--------|------------0--------|---------------------|
|-------(0)-----0-----|-------(0)-----0-----|-------(0)-----0-----|-------(0)-----------|
|---------------------|---------------------|---------------------|---------------------|
|--3------------------|--3------------------|--3------------------|--3-----------3--2---|
   rol

   BRIDGE
                                          F7 major
|------------------|-------------------|--0--------------|------------------|------------------|
|--0----1----3-----|--0------1----3----|--1--------------|------------------|--0----1----3-----|
|--0----0----0-----|--0------0----0----|--2-----------0--|----------2----0--|--0----0----0-----|
|--0----2----0-----|--0------2----0----|--3--------3-----|-------3----------|--0----2----0-----|
|--2----0----2-----|------0-------2----|-----------------|------------------|--2----0----2-----|
|---------------3--|-------------------|-----------------|------------------|---------------3--|


|-------------------|--0----------------|-----------------|------------------|------------------|
|--0------1----3----|--1----------------|-------------0h--|--1---------------|--------------0h--|
|--0------0----0----|--2-------2-----0--|-----------------|---------2-----2--|------------------|
|--0------2----0----|--3----------3-----|------3----------|------------2-----|------------------|
|------0-------2----|-------------------|-----------------|------------------|--0---------------|
|-------------------|-------------------|-----------------|------------------|------------------|


|------------------|-------------------|------------------|-------------------|------------------|
|--1---------------|---------------0h--|--1---------------|---------0h1--3p0--|--0---------------|
|---------2-----2--|-------------------|---------2-----2--|-----0-------------|---------0-----0--|
|------------3-----|-------------------|------------2-----|-------------------|------------0-----|
|------------------|--3----------------|------------------|--0----------------|------------------|
|------------------|-------------------|------------------|-------------------|------------------|


|-------------------|-------------------|
|-------------------|-------------------|
|-------0-----------|----------------0--|
|----------------0--|----------0--------|
|------------0h2----|--2----------2-----|
|--3----------------|-------------------|
Добавлено: 15.05.2012
Другие материалы по этой песне:

Страница создана 15.05.2012
http://primanota.ru/gravenhurst/nicole-chords.htm
Привет, Гость.
Предлагаем пройти революционный курс по гитаре.
Подарок от PrimaNota.Ru, забирай!