PrimaNota.ru - самый крупный в мире бесплатный архив песенных текстов, аккордов, табулатур и нот


Gravenhurst - Fitzrovia - таба, видео

Регистрация Запомнить меня
Войти через:  Facebook Google Twitter Vk Yandex Mail.ru

Gravenhurst - Fitzrovia - таба, видео

Печатать
Просмотров: 81
Уроки эстрадного вокала в Санкт-Петербурге
(/) Slide Up  (\) Slide Down  (h) Hammer On  (p) Pull Off  (b) Bend (r) Release (v) Vibrato

E|-------------------------------------------------------------------|
B|-------------------------------------------------------------------|
G|--7--4--7--4--7/9--------5--4--2--0--4-----------------------------|
D|-------------------7--5-----------------2--------------------------|
A|-------------------------------------------5--4--5--7--5--4--5-----|
E|----------------------------------------------------------------3--|
(x2)


E|----------------|
B|-10---10---10---|
G|----7----7----7-|
D|----------------|
A|----------------|
E|----------------|
(x2)


E|--------------------------|
B|-10---10---10-------------|
G|----7----7----6-6h7p6-----|
D|----------------------7/9-|
A|--------------------------|
E|--------------------------|



E|-------------------------|
B|-------7-------7-------7-|
G|-7-6h7---7-6h7---7-6h7---|
D|-------------------------|
A|-------------------------|
E|-------------------------|



E|-------------------------|
B|-------8-------8-------8-|
G|-7-6h7---7-6h7---7-6h7---|
D|-------------------------|
A|-------------------------|
E|-------------------------|
                                                        http://www.guitartabcreator.com
Добавлено: 20.10.2013
Другие материалы по этой песне:
  • Аккорды и текст

Страница создана 20.10.2013
http://primanota.ru/gravenhurst/fitzrovia-chords.htm
Привет, Гость.
Предлагаем пройти революционный курс по гитаре.
Подарок от PrimaNota.Ru, забирай!