PrimaNota.ru - самый крупный в мире бесплатный архив песенных текстов, аккордов, табулатур и нот


Graveltrap - Kickinchickens - таба, видео

Регистрация Запомнить меня
Войти через:  Facebook Google Twitter Vk Yandex Mail.ru

Graveltrap - Kickinchickens - таба, видео

Печатать
Просмотров: 120
Уроки эстрадного вокала в Санкт-Петербурге
Notation [--P-M--] = palm mute
h = hammer on
p = pull off
b = bend string up
r = release bend
/ = slide up
\ = slide down
v = vibrato (sometimes written as ~)
t = tap (with strumming hand)
x = muted, struck string
x\\ = pick scrapes
. = staccato note (over note)
(1) = unintentional note
Harm = harmonic


KICKIN' CHICKENS
Intro

E------------------------------------------------------------------------|
B------------------------------------------------------------------------|
G-5---x---x---5---10---x---x---10---10---x---x---10---(9)---9------------|
D-3---x---x---3--- 7---x---x--- 7--- 8---x---x--- 8---10 -------10---0---| X2
A------------------------------------------------------------------------|
E------------------------------------------------------------------------|


E-------------------------------------------------------------------------------------|
B-------------------------------------------------------------------------------------|
G-5---5---5-5-5-10---10-10---10-10-10-10-10---10---10-10-10- 9--- 9- 9--- 9- 9- 9 (0)-|
D-3---3---3-3-3- 7--- 7- 7--- 7- 7- 7 (0) 8--- 8--- 8- 8- 8-10---10-10---10--10-10(0)-| X2
A-------------------------------------------------------------------------------------|
E-------------------------------------------------------------------------------------|


Main Riff Chords

E-------------------------------------------------------------------|
B-------------------------------------------------------------------|
G-------------------------------------------------------------------|
D---------------------------------------------------------------0---|
A-3---3---x-3-x-8---8-8---x-8-x-8-8---8---x-8-x-7---7-7---7h8-x-0---|
E-1---1---x-1-x-5---5-5---x-5-x-5-6---6---x-6-x-8---8-8---8---x-0---|


Main Riff Lead


E-----------------------------------------------------------------|
B-----------------------------------------------------------------|
G-----------------------------------------------------------------|
D-------------------------------------------------3---5---3p0-----| X2
A---------3h5p3-----------3h5p3-----------3h5p3---------------0---|
E-1---1--------h5---5-5--------h6---6-6---------------------------|


Verse

[---P-M---] [---P-M---] [---P-M---] [---P-M---] [---P-M-----------------------------------------|
E-----------------------------------------------------------------------------------------------|
B-----------------------------------------------------------------------------------------------|
G-----------------5---5-5-5-5-5-5-7---7-7-7-7-7-7-----------------------------------------------|
D-3---3-3-3-3-3-3-3---5-5-5-5-5-5-7---7-7-7-7-7-7-7---7-7-7-7-7-7-8---8-8-8-8-8-8-10-------10\--|
A-3---3-3-3-3-3-3-3---3-3-3-3-3-3-5---5-5-5-5-5-5-7---7-7-7-7-7-7-8---8-8-8-8-8-8-10-------10\--|
E-1---1-1-1-1-1-1---------------------------------5---5-5-5-5-5-5-6---6-6-6-6-6-6- 8------- 8\--|


Verse Break

E----------------------------------|
B----------------------------------|
G---------------7-7---x-5-5---x(0)-|
D-3---3---3-3-3-7-7---x-5-5---x(0)-|
A-3---3---3-3-3-5-5---x-3-3---x(0)-|
E-1---1---1-1-1--------------------|


Pre Chorus Break

E-----------------------------------------------------------------|
B-----------------------------------------------------------------|
G---------------7-7---x-5-5---x-3-3---3---3-3-3-------------------|
D-3---3---3-3-3-7-7---x-5-5---x-3-3---3---3-3-3-5---5-5-----------| X2
A-3---3---3-3-3-5-5---x-3-3---x-1-1---1---1-1-1-5---5-5---3h5-3p0-|
E-1---1---1-1-1---------------------------------3---3-3-----------|


Chorus

E-----------------------------------------------------------------------------------|
B-10---10-10---10-10-10-------------------------------------------------------------|
G-10---10-10---10-10-10-------------------------------------------------------------|
D-10---10-10---10-10-10-12---12-12---12-12-12-8---8-8---8-8-8-10---10-10---10-10-10-|
A- 8--- 8- 8--- 8- 8- 8-12---12-12---12-12-12-8---8-8---8-8-8-10---10-10---10-10-10-|
E-----------------------10---10-10---10-10-10-6---6-6---6-6-6- 8--- 8- 8--- 8- 8- 8-|


Middle 8

(loose picking of major bar chords: High F, D, A, A# - goes into power chords for loud bit)

E-----------------------------------------------------------------------|
B---------10-----------------7------------------------------------------|
G---------10---10------------7---7-----------6---------------7----------|
D-10---10---------10(0)7---7-------7(0)7---7-7---7-----8---8-8---8------|
A- 8--- 8-----------(0)5---5--------(0)7---7-------7(0)8---8-------8(0)-|
E--------------------------------------5---5--------(0)6---6--------(0)-|
Добавлено: 16.05.2012
Вам также может быть интересно:
Другие материалы по этой песне:
  • Аккорды и текст

Страница создана 16.05.2012
http://primanota.ru/graveltrap/kickinchickens-chords.htm
Привет, Гость.
Предлагаем пройти революционный курс по гитаре.
Подарок от PrimaNota.Ru, забирай!