PrimaNota.ru - самый крупный в мире бесплатный архив песенных текстов, аккордов, табулатур и нот


Graveltrap - Dogslife - таба

Регистрация Запомнить меня
Войти через:  Facebook Google Twitter Vk Yandex Mail.ru

Graveltrap - Dogslife - таба

Печатать
Просмотров: 95
Notation [--P-M--] = palm mute
h = hammer on
p = pull off
b = bend string up
r = release bend
/ = slide up
\ = slide down
v = vibrato (sometimes written as ~)
t = tap (with strumming hand)
x = muted, struck string

DOGS LIFE
Main Riff

E-------------------------------------------------------------------|
B-------------------------------------------------------------------|
G-6---6---6h7-6-------------------7---7---7-7-x---------------------|
D-7---7---7---7-9---9-9---9-9-9-9-7---7---7-7-x-11---11-x-9---9-9-x-|
A-0---0---0---0-7---7-7---7-7-7-7--------------- 9--- 9-x-7---7-7-x-|
E-------------------------------------------------------------------|


Verse
[---P-M---] [---P-M------------------|
E------------------------------------|
B------------------------------------|
G-----------------9---9-9-9-9-9-9-7--|
D-7---7-7-7-7-7-7-9---9-9-9-9-9-9-7--|
A-7---7-7-7-7-7-7-7---7-7-7-7-7-7-5--|
E-5---5-5-5-5-5-5--------------------|


[---P-M------------------------------| [P-M] [P-M]
E------------------------------------|
B------------------------------------|
G---7-7-7-7-7-7-11---11-11-9---9-9---|
D---7-7-7-7-7-7-11---11-11-9---9-9---|
A---5-5-5-5-5-5- 9--- 9- 9-7---7-7---|
E------------------------------------|


Pre Chorus

E-----------------------------------------------|
B-----------------------------------------------|
G-----------------------------------------------|
D-----------------------------------------------|
A--------------------------------------------7--|
E-5-5--5-5--x-x-5-5--5-5--x-x-5-5--5-5---0------|


Chorus

E-----------------------------------------------------------------|
D-----------------------------------------------------------------|
G---------------------------------7---7---7-7-7-9---9-9---9-9-9-9-|
B-7---7---7-7-7-9---9-9---9-9-9-9-7---7---7-7-7-9---9-9---9-9-9-9-|
A-7---7---7-7-7-9---9-9---9-9-9-9-5---5---5-5-5-7---7-7---7-7-7-7-|
E-5---5---5-5-5-7---7-7---7-7-7-7---------------------------------|


Clean Bridge

E-----------------------------------------------------------------|
D-----------------------------------------------------------------|
G-9---9---x-9-x-6---6-6---6-6-6-6-7---7---x-7-x-6---6-6---6-6-6-6-|
B-7---7---x-7-x-7---7-7---7-7-7-7-4---4---x-4-x-4---4-4---4-4-4-4-|
A-0---0---x-0-x-0---0-0---0-0-0-0-x---x---x-x-x-x---x-x---x-x-x-x-|
E-----------------------------------------------------------------|

E-----------------------------------------------------------------|
D-----------------------------------------------------------------|
G-7---7---x-7-x-6---6-6---6-6-6-6-9---9---x-9-x-------------------|
B-x---x---x-x-x-x---x-x---x-x-x-x-x---x---x-x-x-9---9-9---9-9-9-9-|
A-5---5---x-5-x-5---5-5---5-5-5-5-7---7---x-7-x-7---7-7---7-7-7-7-|
E-----------------------------------------------0---0-0---0-0-0-0-|


Outro

E-----------------------------------------------------------------|
B-----------------------------------------------------------------|
G-----------------9---9-9---9-9-9-7---7-7---7-7-7-9---9-9---9-9-9-|
D-7---7-7---7-7-7-9---9-9---9-9-9-7---7-7---7-7-7-9---9-9---9-9-9-| x3
A-7---7-7---7-7-7-7---7-7---7-7-7-5---5-5---5-5-5-7---7-7---7-7-7-|
E-5---5-5---5-5-5-------------------------------------------------|

E----------------------------------------------------------------|
B----------------------------------------------------------------|
G-----------------9---9-9---9-9-9-7-----------7-9-----------9----|
D-7---7-7---7-7-7-9---9-9---9-9-9-7-----------7-9-----------9-7\-|
A-7---7-7---7-7-7-7---7-7---7-7-7-5-----------5-7-----------7-7\-|
E-5---5-5---5-5-5---------------------------------------------5\-|
Добавлено: 29.02.2012
Другие материалы по этой песне:
  • Аккорды и текст

Страница создана 29.02.2012
http://primanota.ru/graveltrap/dogslife-chords.htm
Привет, Гость.
Предлагаем пройти революционный курс по гитаре.
Подарок от PrimaNota.Ru, забирай!