PrimaNota.ru - самый крупный в мире бесплатный архив песенных текстов, аккордов, табулатур и нот


Graveland - Battle Of Wotans Wolves - текст песни, таба, видео

Регистрация Запомнить меня
Войти через:  Facebook Google Twitter Vk Yandex Mail.ru

Graveland - Battle Of Wotans Wolves - текст песни, таба, видео

Печатать
Просмотров: 142
**


Riff A:                                                           x4
|-----------------------------------------------------------------|
|-----------------------------------------------------------------|
|-----------------------------------------------------------------|
|-2---3-2-2---5---2---3-2-2---5---2---3-2-2---5---2---3-2-2-0-0---|
|-2---3-2-2---3---2---3-2-2---5---2---3-2-2---3---2---3-2-2-0-0---|
|-0---1-0-0---3---0---1-0-0---3---0---1-0-0---3---0---1-0-0-0-0---|
                                                            pm

Riff B:                                                           x2
|-----------------------------------------------------------------|
|-----------------------------------------------------------------|
|-----------------------------------------------------------------|
|-7-------3-------5-3-2-3-2-0-2---7-------3-------2-3-2-0-2-3-2---|
|-7-------3-------5-3-2-3-2-0-2---7-------3-------2-3-2-0-2-3-2---|
|-5-------1-------3-1-0-1-0-0-0---5-------1-------0-1-0-0-0-1-0---|

play Riff A x2 under Lead A1 x2

Lead A1:
|-0-0-0-0-0-0-0-0-0-0-0-0-0-0-0-0-0-0-0-0-0-0-0-0-0-0-0-0-0-0-0-0-|
|1212121212121212131313131313131312121212121212121010101010101010-|
|-----------------------------------------------------------------|
|--**downstrokes--------------------------------------------------|
|-----------------------------------------------------------------|
|-----------------------------------------------------------------|

play Riff A x2 under Lead A2 x2

Lead A2:
|-0-0-0-0-0-0-0-0-0-0-0-0-0-0-0-0-0-0-0-0-0-0-0-0-0-0-0-0-0-0-0-0-|
|-8-8-8-8-7-7-8-810101010-8-8101012121212131312121313151513131212-|
|-----------------------------------------------------------------|
|-----------------------------------------------------------------|
|-----------------------------------------------------------------|
|-----------------------------------------------------------------|


play Riff A x4
play Riff B x2


Riff C:                   x16
|-------------------------|
|-------------------------|
|-------------------------|
|-3-2-3-5-222-3-000-2-2-2-|
|-3-2-3-5-222-3-000-2-2-2-|
|-1-0-1-3-000-1-000-0-0-0-|
          pm.   pm.


Riff D:                                                           x8
|-----------------------------------------------------------------|
|-----------------------------------------------------------------|
|-----------------------------------------------------------------|
|-2---2-2-5---2---2---2-2-3---0---2---2-2-5---2---2---2-2-3---0---|
|-2---2-2-5---2---2---2-2-3---0---2---2-2-5---2---2---2-2-3---0---|
|-0---0-0-3---0---0---0-0-1---0---0---0-0-3---0---0---0-0-1---0---|

Fill:
|----------------------------------|
|----------------------------------|
|----------------------------------|
|-2--------------------------------|
|-2--------------------------------|
|-0--------------------------------|


play Riff E x4 under Lead B1 x2

Riff E:
|-------------------------------------------------|
|-------------------------------------------------|
|-------------------------------------------------|
|-2-3-2-2-0(0)2-3-2-2-0(0)2-3-2-2-0(0)2-3-2-2-0(0)|
|-2-3-2-2-0(0)2-3-2-2-0(0)2-3-2-2-0(0)2-3-2-2-0(0)|
|-0-1-0-0-0(0)0-1-0-0-0(0)0-1-0-0-0(0)0-1-0-0-0(0)|
      pm.....     pm.....     pm.....     pm.....

Lead B1:
|-33333333333333333333333322222222222222222222222-|
|-00000000000000000000000000000000000000000000000-|
|-------------------------------------------------|
|-------------------------------------------------|
|-------------------------------------------------|
|-------------------------------------------------|

 -33333333333333333333333377777777777777777777777-|
 -00000000000000000000000000000000000000000000000-|
 -------------------------------------------------|
 -------------------------------------------------|
 -------------------------------------------------|
 -------------------------------------------------|


play Riff E x8 under Lead B2 x2


Lead B2:
|-55555555555555555555555555555555555555555555555-|
|-00000000000000000000000000000000000000000000000-|
|-------------------------------------------------|
|-------------------------------------------------|
|-------------------------------------------------|
|-------------------------------------------------|

 -888888888888888888888888TTTTTTTTTTTTTTTTTTTTTTT-|
 -00000000000000000000000000000000000000000000000-|
 -------------------------------------------------|
 ----------------------T represents a 10 (Ten)----|
 -------------------------------------------------|
 -------------------------------------------------|

 -77777777777777777777777777777777777777777777777-|
 -00000000000000000000000000000000000000000000000-|
 -------------------------------------------------|
 -------------------------------------------------|
 -------------------------------------------------|
 -------------------------------------------------|

 -77777777777777777777777777777777777777777777777-|
 -00000000000000000000000000000000000000000000000-|
 -------------------------------------------------|
 -------------------------------------------------|
 -------------------------------------------------|
 -------------------------------------------------|


play Riff E x4 under Lead B1 x2
play Riff E x8 under Lead B2 x2


play Riff D x8
do Fill


play Riff F x4 under Lead C x4

Riff F:
|------------------------------------------------------------------|
|------------------------------------------------------------------|
|-4-444-2-4-445---4-444-2-4-444--24-444-2-5-5-4-4-2-222-225-522-22-|
|-2-222-2-2-222---2-222-2-2-222--22-222-2-2-2-2-2-0-000-000-000-00-|
|------------------------------------------------------------------|
|------------------------------------------------------------------|

Lead C:
|-0-000-003-335-557-777-557-777-700-000-003-335-552-222-223-322-22-|
|-0-000-000-000-000-000-000-000-000-000-000-000-003-333-333-333-33-|
|------------------------------------------------------------------|
|------------------------------------------------------------------|
|------------------------------------------------------------------|
|------------------------------------------------------------------|


play Riff G x4 under Lead C x4

Riff G:
|------------------------------------------------------------------|
|------------------------------------------------------------------|
|------------------------------------------------------------------|
|-2-322-0-2-322-3-5-223-002-322-3-5-223-002-3-2-2-0-000-2-3-3\0-0--|
|-2-322-0-2-322-3-5-223-002-322-3-5-223-002-3-2-2-0-000-2-3-3\0-0--|
|-0-100-0-0-100-1-3-001-000-100-1-3-001-000-1-0-0-0-000-0-1-1\0-0--|


End on:
|-0--------------|
|-0--------------|
|----------------|
|-2--------------|
|-2--------------|
|-0--------------|
Добавлено: 20.04.2012
Другие материалы по этой песне:
  • Аккорды и текст

Страница создана 28.03.2012
http://primanota.ru/graveland/battle-of-wotans-wolves-chords.htm
Привет, Гость.
Предлагаем пройти революционный курс по гитаре.
Подарок от PrimaNota.Ru, забирай!