PrimaNota.ru - самый крупный в мире бесплатный архив песенных текстов, аккордов, табулатур и нот


Grave - Day Of Mourning - текст песни, таба, видео

Регистрация Запомнить меня
Войти через:  Facebook Google Twitter Vk Yandex Mail.ru

Grave - Day Of Mourning - текст песни, таба, видео

Печатать
Просмотров: 168
Grave - "Day Of Mourning" (From the album "Into The Grave" and
a demo verson on the EP "...And Here I Die...Satisfied")

One of the best death metal bands out there! "...Grave" is heavy
as hell, "You'll Never See..." LP is great too, so is the EP.

Drop guitars to C G C

Intro:

E ------------------------|
B ------------------------|
G ------------------------|4
C -11-1-0---0-11-1-0-1-3--|x
G -11-1-0-0---11-1-0-1-3--|
C -11-1-0-----11-1-0-1-3--|

E --------------|        -------        ---------|
B --------------|        -------       ----------|
G --------------|8   (bass) ------- (bass) ------|
C -----0--------|x        -/x\-0-       -/x\-----|
G ---0----------|        -/x\-0-       -/x\------|
C -0-----0-1-3--|        -/x\-0-       -/x\------|

E -------------|
B -------------|
G -------------|2
C -0--8--4--6--|x
G -0--8--4--6--|
C -0--8--4--6--|

Verse:

E -----------------------------------------|
B -----------------------------------------|
G -----------------------------------------|
C --0000000000000-1-3-000000000000000-3-1--|
G --0000000000000-1-3-000000000000000-3-1--|
C --0000000000000-1-3-000000000000000-3-1--|

Chorus:

E ----------------------|
B ----------------------|
G ----------------------|
C --0000-7777-11111111--|
G --0000-7777-11111111--|
C --0000-7777-11111111--|

After 2nd chorus:

E --------------------------|
B --------------------------|
G --------------------------|8
C --------------------0000--|x
G --------------------0000--|
C --0-1-3-4-3-1-0-1-3-0000--|

E -------------------------|
B -------------------------|
G -------------------------|4
C -------------------------|x
G ---------0----------1----|
C --0-00-0---0-1-11-1---1--|

E --------------------------|
B --------------------------|
G --------------------------|8
C --------------------0000--|x
G --------------------0000--|
C --0-1-3-4-3-1-0-1-3-0000--|

(repeat verse & chorus)
Добавлено: 25.07.2012
Другие материалы по этой песне:
  • Аккорды и текст

Страница создана 12.04.2012
http://primanota.ru/grave/day-of-mourning-chords.htm
Привет, Гость.
Предлагаем пройти революционный курс по гитаре.
Подарок от PrimaNota.Ru, забирай!