PrimaNota.ru - самый крупный в мире бесплатный архив песенных текстов, аккордов, табулатур и нот


Grave Digger - Ballad Of A Hangman - текст песни, таба, видео

Регистрация Запомнить меня
Войти через:  Facebook Google Twitter Vk Yandex Mail.ru

Grave Digger - Ballad Of A Hangman - текст песни, таба, видео

Печатать
Просмотров: 169
BALLAD OF A HANGMAN-As Recorded By GRAVE DIGGER (E A D G B E)

I have yet to figure out Guitar 2 on the chorus/intro, but if I do, I will update it...

INTRO:
|-------------------------------|-----------------------------|----------||
|o------------------------------|----------------------------o|----------||
|---9-------7-9-10----7-10--9---|--9--------------------------|----------||
|------9--7---------------------|-----9--7---9-10-9------9-7--|-(7)------||
|o------------------------------|---------------------10-----o|----------||
|-------------------------------|-----------------------------|----------||

            PM---------|          PM----------|
|----------------------------------------------|
|o--------------------------------------------o|
|----------------------------------------------|
|-10-9-7--9--------------10-9-7-9--------------|
|o-7-7-7--7-7-7-7-7-7-7--7--7-7-7-7-7-7-7-7-7-o|
|----------------------------------------------|
|   ______________       ______________
|  |played 1st time     |2nd time only
|----------------------------------------------|
|o--------------------------------------------o|
|-------------------------------7--------------|
|--9---------------------5------7--------------|
|o-7---------------------5------5-------------o|
|--0---------------------3---------------------|

            PM---------|        
|----------------------------------------------||
|o--------------------------------------------o||
|-------------------------------7--------------||
|-10-9-7--9---------------5--7--7----7--5--4---||
|o-7-7-7--7-7-7-7-7-7-7---5--7--5----7--5--4--o||
|-------------------------3--5-------5--3--2---||
|                        ________________
|  * **                 | played 2nd time
|----------------------------------------------||
|o--------------------------------------------o||
|--9---------------------5-----7---------------||
|--9-7-------------------5-----7---------------||
|o-7-7-------------------3-----5--------------o||
|--0-5-----------------------------------------||
*=PLAYED FIRST TIME ONLY
**=PLAYED 2ND TIME

 PRE-VERSE:  PM---------|          PM----------|
|-----------------------------------------------|
|o----------------------------------------------|
|-----------------------------------------------|
|--10-9-7--9--------------10-9-7-9--------------|
|o--7-7-7--7-7-7-7-7-7-7--7--7-7-7-7-7-7-7-7-7--|
|-----------------------------------------------|
|
|    PM----------------------------------------|
|-----------------------------------------------|
|o----------------------------------------------|
|-----------------------------------------------|
|--2--------------------------------------------|
|o-2--------------------------------------------|
|--0-0-0-0-0-0-0-0-0-0-0-0-0-0-0-0-0-0-0-0-0-0--|
 
            PM---------|      
|----------------------------------------------||
|---------------------------------------------o||
|------------------------------7---------------||
|-10-9-7--9--------------5--7--7-----7--5--4---||
|--7-7-7--7-7-7-7-7-7-7--5--7--5-----7--5--4--o||
|------------------------3--5--------5--3--2---||
|
| PM-------------------|
|----------------------------------------------||
|---------------------------------------------o||
|------------------------------7---------------||
|------------------------5--7--7-----7--5--4---||
|------------------------5--7--5-----7--5--4--o||
|-0-0-0-0-0-0-0-0-0-0-0--3--5--------5--3--2---||

VERSE:
     PM-----------------------------------------------------|
|------------------------------------|------------------------------------|
|o-----------------------------------|------------------------------------|
|--2---------------------------------|------------------------------------|
|--2---------------------------------|------------------------------------|
|o-0-0-0-0-0-0-0-0-0-0-0-0-0-0-0-0-0-|-0-0-0-0-0-0-0-0-0-0-0----0--1p0--0-|
|------------------------------------|-----------------------3h4----------|
                                       _________________  _______________
     PM----------------------------|  | 1 2 3         x4 | 4
|------------------------------------|------------------|-----------------||
|------------------------------------|-----------------o|-----------------||
|--2---------------------------------|-----5-----3------|--5-------2--5---||
|--2---------------------------------|-----5-----3------|--5-------2--5---||
|--0-0-0-0-0-0-0-0-0-0-0-0-0-0-0-0-0-|-----3-----1-----o|--3-------0--3---||
|------------------------------------|------------------|-----------------||
                            __________________________  __________________
PRE-CHORUS:                | 1                         | 2
|-------------------------|---------------------------|-------------------||
|o------------------------|--------------------------o|-------------------||
|-10----------------------|-10--12--------------------|-10-10-10-10-12----||
|-10--10--12---12--12--12-|-10--12-10-12---12--12-12--|-10-10-10-10-12----||
|o-8--10--12---12--12--12-|--8--10-10-12---12--12-12-o|--8--8--8--8-10----||
|------8--10---10--10--10-|---------8-10---10--10-10--|--8--8--8--8-10----||

CHORUS:
|-------------------------------|-----------------------------||
|-------------------------------|-----------------------------||
|---9-------7-9-10----7-10--9---|--9--------------------------||
|------9--7---------------------|-----9--7---9-10-9------9-7--||
|-------------------------------|---------------------10------||
|-------------------------------|-----------------------------||

PRE-VERSE:  PM---------|          PM----------|
|-----------------------------------------------|
|o----------------------------------------------|
|-----------------------------------------------|
|--10-9-7--9--------------10-9-7-9--------------|
|o--7-7-7--7-7-7-7-7-7-7--7--7-7-7-7-7-7-7-7-7--|
|-----------------------------------------------|
|
|    PM----------------------------------------|
|-----------------------------------------------|
|o----------------------------------------------|
|-----------------------------------------------|
|--2--------------------------------------------|
|o-2--------------------------------------------|
|--0-0-0-0-0-0-0-0-0-0-0-0-0-0-0-0-0-0-0-0-0-0--|
 
            PM---------|      
|----------------------------------------------||
|---------------------------------------------o||
|------------------------------7---------------||
|-10-9-7--9--------------5--7--7-----7--5--4---||
|--7-7-7--7-7-7-7-7-7-7--5--7--5-----7--5--4--o||
|------------------------3--5--------5--3--2---||
|
| PM-------------------|
|----------------------------------------------||
|---------------------------------------------o||
|------------------------------7---------------||
|------------------------5--7--7-----7--5--4---||
|------------------------5--7--5-----7--5--4--o||
|-0-0-0-0-0-0-0-0-0-0-0--3--5--------5--3--2---||

VERSE:
     PM-----------------------------------------------------|
|------------------------------------|------------------------------------|
|o-----------------------------------|------------------------------------|
|--2---------------------------------|------------------------------------|
|--2---------------------------------|------------------------------------|
|o-0-0-0-0-0-0-0-0-0-0-0-0-0-0-0-0-0-|-0-0-0-0-0-0-0-0-0-0-0----0--1p0--0-|
|------------------------------------|-----------------------3h4----------|
                                        _________________  ________________
     PM-----------------------------|  | 1             x4 | 2
|------------------------------------|------------------|-----------------||
|------------------------------------|-----------------o|-----------------||
|--2---------------------------------|-----5-----3------|--5-------2--5---||
|--2---------------------------------|-----5-----3------|--5-------2--5---||
|--0-0-0-0-0-0-0-0-0-0-0-0-0-0-0-0-0-|-----3-----1-----o|--3-------0--3---||
|------------------------------------|------------------|-----------------||
                            __________________________  __________________
PRE-CHORUS:                | 1                         | 2
|-------------------------|---------------------------|-------------------||
|o------------------------|--------------------------o|-------------------||
|-10----------------------|-10--12--------------------|-10-10-10-10-12----||
|-10--10--12---12--12--12-|-10--12-10-12---12--12-12--|-10-10-10-10-12----||
|o-8--10--12---12--12--12-|--8--10-10-12---12--12-12-o|--8--8--8--8-10----||
|------8--10---10--10--10-|---------8-10---10--10-10--|--8--8--8--8-10----||

CHORUS:
|-------------------------------|-----------------------------||
|o------------------------------|----------------------------o||
|---9-------7-9-10----7-10--9---|--9--------------------------||
|------9--7---------------------|-----9--7---9-10-9------9-7--||
|o------------------------------|---------------------10-----o||
|-------------------------------|-----------------------------||

GUITAR SOLO w/octaver                          _______________________
GUITAR 1                                      | 1
|---------------------|----------------------|------------------------|
|o--------------------|----------------------|------------------------|
|-/7~-----9---10~-\---|---/10~----12--14~-\--|--/15~---12------15-----|
|---------------------|----------------------|------------------------|
|o--------------------|----------------------|------------------------|
|---------------------|----------------------|------------------------|
 _________________________________________________  _______________________
                                                   | 2
|-12-13-12----12----------------------------------|---------------|--------|
|----------15----15-13-12-10-12-10---------------o|---------------|--------|
|----------------------------------12-10-9-10-9-7-|-/17~--14~--17-|-17h19~-|
|-------------------------------------------------|---------------|--------|
|------------------------------------------------o|---------------|--------|
|-------------------------------------------------|---------------|--------|
                                                                
|--------------|----------------|-12b(14)---r(12)~--10----|----------------|
|--------------|----------------|----------------------13-|-10~--11p10-----|
|-/7~--9-10~-\-|-/10~--12-14~-\-|-------------------------|------------12~-|
|--------------|----------------|-------------------------|----------------|
|--------------|----------------|-------------------------|----------------|
|--------------|----------------|-------------------------|----------------|

GUITAR SOLO 2 w/pitch shifter
GUITAR 2
|----------------------------------|
|-------10-------11-------10-------|
|-14p10----12p10----14p10----12p10-|
|----------------------------------|
|----------------------------------|
|----------------------------------|

|-------------------------------------------------------------|
|-------10-------11p10-------11p10----------------------------|
|-14p10----14p10-------14p10-------14p10-14p10--14p9-12p9-10~-|
|-------------------------------------------------------------|
|-------------------------------------------------------------|
|-------------------------------------------------------------|
                                           
                                                  TREM-----|
|------------------------------------------------------------17--~~~~~~~~~|
|-15p13----17p13----15p13-17p13-18p13-17p15-15p13-17b(17.5)~(18)-17pb(18)~|
|-------14-------14-------------------------------------------------------|
|-------------------------------------------------------------------------|
|-------------------------------------------------------------------------|
|-------------------------------------------------------------------------|
                            __________________________  __________________
PRE-CHORUS:                | 1                         | 2
|-------------------------|---------------------------|-------------------||
|o------------------------|--------------------------o|-------------------||
|-10----------------------|-10--12--------------------|-10-10-10-10-12----||
|-10--10--12---12--12--12-|-10--12-10-12---12--12-12--|-10-10-10-10-12----||
|o-8--10--12---12--12--12-|--8--10-10-12---12--12-12-o|--8--8--8--8-10----||
|------8--10---10--10--10-|---------8-10---10--10-10--|--8--8--8--8-10----||

CHORUS:
|-------------------------------|-----------------------------||
|o------------------------------|----------------------------o||
|---9-------7-9-10----7-10--9---|--9--------------------------||
|------9--7---------------------|-----9--7---9-10-9------9-7--||
|o------------------------------|---------------------10-----o||
|-------------------------------|-----------------------------||

             PM---------|          PM----------|
|-----------------------------------------------|
|o----------------------------------------------|
|-----------------------------------------------|
|--10-9-7--9--------------10-9-7-9--------------|
|o--7-7-7--7-7-7-7-7-7-7--7--7-7-7-7-7-7-7-7-7--|
|-----------------------------------------------|
|
|    PM----------------------------------------|
|-----------------------------------------------|
|o----------------------------------------------|
|-----------------------------------------------|
|--2--------------------------------------------|
|o-2--------------------------------------------|
|--0-0-0-0-0-0-0-0-0-0-0-0-0-0-0-0-0-0-0-0-0-0--|
 
            PM---------|      
|----------------------------------------------||
|---------------------------------------------o||
|------------------------------7---------------||
|-10-9-7--9--------------5--7--7-----7--5--4---||
|--7-7-7--7-7-7-7-7-7-7--5--7--5-----7--5--4--o||
|------------------------3--5--------5--3--2---||
|
| PM-------------------|
|----------------------------------------------||
|---------------------------------------------o||
|------------------------------7---------------||
|------------------------5--7--7-----7--5--4---||
|------------------------5--7--5-----7--5--4--o||
|-0-0-0-0-0-0-0-0-0-0-0--3--5--------5--3--2---||

             PM---------|          PM----------|
|-----------------------------------------------|
|o----------------------------------------------|
|-----------------------------------------------|
|--10-9-7--9--------------10-9-7-9--------------|
|o--7-7-7--7-7-7-7-7-7-7--7--7-7-7-7-7-7-7-7-7--|
|-----------------------------------------------|

            PM---------|      
|----------------------------------------------|-------*|
|---------------------------------------------o|-------*|
|------------------------------7---------------|-------*|
|-10-9-7--9--------------5--7--7-----7--5--4---|-2-----*|
|--7-7-7--7-7-7-7-7-7-7--5--7--5-----7--5--4--o|-2-----*|
|------------------------3--5--------5--3--2---|-0-----*|
|
|GUITAR 2 ( 2nd time)
|----------------------------------------------|-------*|
|----------------------------------------------|-17~---*|
|-----------------------12-14-11-----12-11-----|-------*|
|------------------------------------------14--|-------*|
|----------------------------------------------|-------*|
|----------------------------------------------|-------*|
Добавлено: 11.04.2012
Другие материалы по этой песне:
  • Аккорды и текст

Страница создана 11.04.2012
http://primanota.ru/grave-digger/ballad-of-a-hangman-chords.htm
Привет, Гость.
Предлагаем пройти революционный курс по гитаре.
Подарок от PrimaNota.Ru, забирай!