PrimaNota.ru - самый крупный в мире бесплатный архив песенных текстов, аккордов, табулатур и нот


Grattan Phillips - Final Santana - таба, видео

Регистрация Запомнить меня
Войти через:  Facebook Google Twitter Vk Yandex Mail.ru

Grattan Phillips - Final Santana - таба, видео

Печатать
Просмотров: 48
-------------------------------------------------------------------------------
                             FINAL SANTANA - GRATTAN PHILLIPS
-------------------------------------------------------------------------------
Tabbed by: Grattan Phillips
E-mail: gratphillips@outlook.com

Tuning: Half-Step Down


(INTRO) Repeat x2 
e|---------------------------------------------------------------------------|
B|---------------------------------------------------------------------------|
G|-9--7--9-----9--7--9-----9--7--9--7--12--7--11--9--------------------------|
D|---------------------------------------------------------------------------|
A|---------------------------------------------------------------------------|
E|---------------------------------------------------------------------------|
                                                                   (INTRO END)

       Repeat x4      
e|---------------------------------------------------------------------------|
B|---------------------------------------------------------------------------|
G|---------------------5--5--5---7--7--7-------------------------------------|
D|-4--4--4---5--5--5---5--5--5---7--7--7-------------------------------------|
A|-4--4--4---5--5--5---3--3--3---5--5--5-------------------------------------|
E|-2--2--2---3--3--3---------------------------------------------------------|
                                                                    CONTINUE >


e|---------------------------------------------------------------------------|
B|---------------------------------------------------------------------------|
G|-7--7--7--7--7--7--7---9--9--9--9--9--9--9---7--7--7---12--12--12---9------|
D|-7--7--7--7--7--7--7---9--9--9--9--9--9--9---7--7--7---12--12--12---9------|
A|-5--5--5--5--5--5--5---7--7--7--7--7--7--7---5--5--5---10--10--10---7------|
E|---------------------------------------------------------------------------|
 


************************************

| /   slide up
| \   slide down
| h   hammer-on
| p   pull-off
| ~   vibrato
| +   harmonic
| x   Mute note
| b   Bend
| pb  Pre-bend
| br  Bend release
| pbr Pre-bend release
| brb Bend release bend

************************************
Добавлено: 14.10.2015
Другие материалы по этой песне:
  • Аккорды и текст

Страница создана 14.10.2015
http://primanota.ru/grattan-phillips/final-santana-chords.htm
Привет, Гость.
Предлагаем пройти революционный курс по гитаре.
Подарок от PrimaNota.Ru, забирай!