PrimaNota.ru - самый крупный в мире бесплатный архив песенных текстов, аккордов, табулатур и нот


Grateful Dead - Turn On Your Lovelight Live - таба, видео

Регистрация Запомнить меня
Войти через:  Facebook Google Twitter Vk Yandex Mail.ru

Grateful Dead - Turn On Your Lovelight Live - таба, видео

Печатать
Просмотров: 89
TURN ON YOUR LOVELIGHT (Live)

As recorded by Grateful Dead
(From the 1972 Album HUNDRED YEAR HALL)

Words and Music by Deadric Malone & Joe Scott

Transcribed by Slowhand


Gtr I (E A D G B E) - 'Jerry Garcia - Electric Guitar'
Gtr II (E A D G B E) - 'Bob Weir - Electric Guitar'


   Intro
    H=109
    N.C.                                        E7           A
   4/4
    Gtrs I, II
    E E E E +Q   Q    E Q  E +Q   Q   4x     Q  E E E E Q    E E E E +Q   Q   8x
||------------------|-----------------||-||----------------|------------------||
||o-----------------|----------------o||-||o----5-----5----|-5-----5-(5)-----o||
||------------------|------6-(6)--9---||-||-----7-----7----|-6-----6-(6)------||
||--------6-(6)--9--|-7---------------||-||-----6-----6----|-7-----7-(7)------||
||o-7---------------|----------------o||-||o---------------|-----------------o||
||------------------|-----------------||-||----------------|------------------||


   1st & 4th Verses
    $
       E7           A                    E7           A
    Q  E E E E Q    E E E E +Q   Q    Q  E E E E Q    E E E E +Q   Q
||----------------|-----------------|---------------|------------------||
||o----5-----5----|-5-----5-(5)-----|----5-----5----|-5-----5-(5)-----o||
||-----7-----7----|-6-----6-(6)-----|----7-----7----|-6-----6-(6)------||
||-----6-----6----|-7-----7-(7)-----|----6-----6----|-7-----7-(7)------||
||o---------------|-----------------|---------------|-----------------o||
||----------------|-----------------|---------------|------------------||


   2nd & 3rd Verses
       E7           A                    E7           A
    Q  E E E E Q    E E E E +Q   Q    Q  E E E E Q    E E E E +Q   Q
||----------------|-----------------|---------------|-----------------|
||o----5-----5----|-5-----5-(5)-----|----5-----5----|-5-----5-(5)-----|
||-----7-----7----|-6-----6-(6)-----|----7-----7----|-6-----6-(6)-----|
||-----6-----6----|-7-----7-(7)-----|----6-----6----|-7-----7-(7)-----|
||o---------------|-----------------|---------------|-----------------|
||----------------|-----------------|---------------|-----------------|


     E7           A                    E7           A
  Q  E E E E Q    E E E E +Q   Q    Q  E E E E Q    E E E E +Q   Q
|---------------|-----------------|---------------|------------------||
|----5-----5----|-5-----5-(5)-----|----5-----5----|-5-----5-(5)------||
|----7-----7----|-6-----6-(6)-----|----7-----7----|-6-----6-(6)------||
|----6-----6----|-7-----7-(7)-----|----6-----6----|-7-----7-(7)------||
|---------------|-----------------|---------------|------------------||
|---------------|-----------------|---------------|------------------||


 Chorus
     E7           A                    E7           A
  Q  E E E E Q    E E E E +Q   Q    Q  E E E E Q    E E E E +Q   Q
|---------------|-----------------|---------------|------------------|
|----5-----5----|-5-----5-(5)-----|----5-----5----|-5-----5-(5)------|
|----7-----7----|-6-----6-(6)-----|----7-----7----|-6-----6-(6)------|
|----6-----6----|-7-----7-(7)-----|----6-----6----|-7-----7-(7)------|
|---------------|-----------------|---------------|------------------|
|---------------|-----------------|---------------|------------------|


     E7           A                    E7           A
  Q  E E E E Q    E E E E +Q   Q    Q  E E E E Q    E E E E +Q   Q
|---------------|-----------------|---------------|------------------|
|----5-----5----|-5-----5-(5)-----|----5-----5----|-5-----5-(5)------|
|----7-----7----|-6-----6-(6)-----|----7-----7----|-6-----6-(6)------|
|----6-----6----|-7-----7-(7)-----|----6-----6----|-7-----7-(7)------|
|---------------|-----------------|---------------|------------------|
|---------------|-----------------|---------------|------------------|


     E      E7         A                 E5       E7         A
  Q   E E E  E Q    Q   Q   +Q   Q    Q   E  E  E  E Q    Q   Q   +Q   Q
|-----------------|-----------------|-------------------|------------------|
|-----------------|----14--(14)-----|-------------------|----14--(14)------|
|----13-----13----|----14--(14)-----|-------------13----|----14--(14)------|
|----14-----12----|----14--(14)-----|----14-14-14-12----|----14--(14)------|
|----14-----14----|----12--(12)-----|----14-14-14-14----|----12--(12)------|
|-----------------|-----------------|-------------------|------------------|


     E5       E7         A                 E      E7         A
  Q   E  E  E  E Q    Q   Q   +Q   Q    Q   E E E  E Q    Q   Q   +Q   Q
|-------------------|-----------------|-----------------|------------------|
|-------------------|----14--(14)-----|-----------------|----14--(14)------|
|-------------13----|----14--(14)-----|----13-----13----|----14--(14)------|
|----14-14-14-12----|----14--(14)-----|----14-----12----|----14--(14)------|
|----14-14-14-14----|----12--(12)-----|----14-----14----|----12--(12)------|
|-------------------|-----------------|-----------------|------------------|


                                        Breakdown
                                        1.
                              To Coda
  E        A        E                    N.C.
   E E E E  Q  Q     E E E  E Q  E E     W              E E E E E E E E
|-----------------|-12----------------||--------------|-----------------|
|----------14-----|-12----------------||--------------|-8---------------|
|-13-------14-----|-13-----12------7--||-9b9.5--------|---9-7---7-------|
|-14-------14-----|--------14----9----||--------------|-------9---9-7-7-|
|-14-------12-----|-------------------||--------------|-----------------|
|-----------------|-------------------||--------------|-----------------|


   E  E  E  E E E E E   E E E E Q  E E   E E E E E E E E   E E E E E Q.
|---------------------|----------------|-----------------|-----------------|
|---------------------|----------------|-----------------|-----------------|
|---------------------|----------------|-----------------|-----------------|
|---------------------|-----0-0-0------|-----------------|-----------------|
|-10-10-10-10-7-7-7-7-|---7-7-7-7--7-7-|-7s6s7-7-7s6s7-7-|-7s6s7-7-7-7-----|
|---------------------|----------------|-----------------|-----------------|


                                         Drum Solo
   W                 +H      +E   E Q     Wx4
|-----------------|--------------------||---------||
|-----------------|--------------------||--------o||
|-----------------|--------------------||---------||
|-----------------|---------------x----||---------||
|-10b10.5=========|=(10)----(10)r-x----||--------o||
|-----------------|---------------x----||---------||


   Interlude
    2.
    N.C.
    Gtr I
    Q   E E E  E Q    Q.     a  E  +Q   E E
||------------------|-----------------------|
||o-----------------|-----------------------|
||-----13-----11----|-9-----------------9---|
||-----14-----------|--------9h11-(11)------|
||o-----------------|-----------------------|
||------------------|-----------------------|
|
|   Gtr II
|   Q   Q   E  E Q    H             H
||------------------|-----------------------|
||o-----------------|-----------------------|
||------9------9----|-6tr5------------------|
||------9------9----|-7---------------------|
||o-----------------|-----------------------|
||------------------|-----------------------|


  Q    Q   +E   E Q     Q.      E  Q   Q    3x
|--------------------|----------------12----||
|--------------12----|-14------12h14-------o||
|----/13--(13)-------|----------------------||
|--------------------|----------------------||
|--------------------|---------------------o||
|--------------------|----------------------||
|
| Q    Q    E   E Q     H          H        3x
|--------------------|----------------------||
|--------------------|---------------------o||
|------9--------9----|--6tr5----------------||
|------9--------9----|--7-------------------||
|--------------------|---------------------o||
|--------------------|----------------------||


  Q   E E E  E Q    Q.     a  E  +Q   E E
|-----------------|-----------------------|
|-----------------|-----------------------|
|----13-----11----|-9-----------------9---|
|----14-----------|--------9h11-(11)------|
|-----------------|-----------------------|
|-----------------|-----------------------|
|
| Q   Q   E  E Q    H             H
|-----------------|-----------------------|
|-----------------|-----------------------|
|-----9------9----|-6tr5------------------|
|-----9------9----|-7---------------------|
|-----------------|-----------------------|
|-----------------|-----------------------|


  Q    Q   +E   E Q     H        E  E  E  E
|--------------------|----------------12-14b16==||
|--------------12----|-14-------12-14-----------||
|----/13--(13)-------|--------------------------||
|--------------------|--------------------------||
|--------------------|--------------------------||
|--------------------|--------------------------||
|
| Q    Q    E   E Q     H        H
|--------------------|--------------------------||
|--------------------|--------------------------||
|------9--------9----|--6tr5--------------------||
|------9--------9----|--7-----------------------||
|--------------------|--------------------------||
|--------------------|--------------------------||


 Guitar Solo
  N.C.
   +H          E      +E   E  E   Q   E    E  E   E  E E
|-(14)r-------14b15==(14)r14-12-|----------------12------|
|-------------------------------|---------12h14-----14---|
|-------------------------------|------------------------|
|-------------------------------|------------------------|
|-------------------------------|------------------------|
|-------------------------------|------------------------|
|
|   E   E E E +H                  E E E a  E +H
|-------------------------------|------------------------|
|-------------------------------|------------------------|
|---9-------9-(9)---------------|-6-----5h=6-(6)---------|
|---9-------9-(9)---------------|-7--------7-(7)---------|
|-------------------------------|------------------------|
|-------------------------------|------------------------|


   E  E  E  E  E   E  E  E    +Q     E   E  H
|-12-----------------------|----------------------|
|----14-12----14-----12-12-|-(12)-----------------|
|----------13-----13-------|----------------------|
|--------------------------|--------14------------|
|--------------------------|----------------------|
|--------------------------|----------------------|
|
|  E  E  E  E +H               E  E  E a E +H
|--------------------------|----------------------|
|--------------------------|----------------------|
|--9--------9-(9)----------|---6-------5h6-(6)----|
|--9--------9-(9)----------|---7---------7-(7)----|
|--------------------------|----------------------|
|--------------------------|----------------------|


  E  E  E  E  E   E  E  E    E  E  E    E  E   E  E  E
|---11S12-12-12--12-12-12-|----------------------------|
|---11S12----12-----12----|-14-14-14---14-12--12-12-11s|
|---12S13----13-----13----|-14----14------13--13-13-12s|
|-------------------------|----------------------------|
|-------------------------|----------------------------|
|-------------------------|----------------------------|
|
| E  E  E  E +H              E  E  E a  E +H
|-------------------------|----------------------------|
|-------------------------|----------------------------|
|-9--------9-(9)----------|--6-------5h=6-(6)----------|
|-9--------9-(9)----------|--7----------7-(7)----------|
|-------------------------|----------------------------|
|-------------------------|----------------------------|


   E  E  E E  E  E  E  E    E  E  E   E  Q   Q
|------------------------|-----------------------|
|-12-12-14---12----11s12-|-12-12-14-----12\------|
|-13-13-14---13----12s13-|-13-13-14-----13\------|
|------------------------|-----------------------|
|------------------------|-----------------------|
|------------------------|-----------------------|
|
|  E  E  E E +H             E  E  E a E +H
|------------------------|-----------------------|
|------------------------|-----------------------|
|--9-------9-(9)---------|--6-------5h6-(6)------|
|--9-------9-(9)---------|--7---------7-(7)------|
|------------------------|-----------------------|
|------------------------|-----------------------|


   Interlude
    N.C.
    E E E E  E  E Q    E E E a E +Q   E E  4x
||-------------------|---------------------||
||o------------------|--------------------o||
||-------------------|---------------------||
||--------------6----|---------------------||
||o-7---7p6h=7-------|-------3s4-(4)--5---o||
||-------------------|-5p4h5---------------||
|
|   E E E E +H         E E E a E +H        4x
||-------------------|---------------------||
||o------------------|--------------------o||
||--9-----9-(9)------|-6-----5h6-(6)-------||
||--9-----9-(9)------|-7-------7-(7)-------||
||o------------------|--------------------o||
||-------------------|---------------------||


                        D.S. al Coda
  E E E E  E  E Q    E E E a E +Q   E E
|------------------|--------------------||
|------------------|--------------------||
|------------------|--------------------||
|-------------6----|--------------------||
|-7---7p6h=7-------|-------3s4-(4)--5---||
|------------------|-5p4h5--------------||
|
| E E E E +H         E E E a E +H
|------------------|--------------------||
|------------------|--------------------||
|-9-----9-(9)------|-6-----5h6-(6)------||
|-9-----9-(9)------|-7-------7-(7)------||
|------------------|--------------------||
|------------------|--------------------||


 Breakdown
  &
  N.C.
  e E Q  e E E e   E e E e E    +E   Q
|----------------|----------------------|
|----------------|---------8b9==(8)r----|
|-9------9-----9-|---9---9--------------|
|----------------|----------------------|
|----------------|----------------------|
|----------------|----------------------|


  e E Q  e E E e   E e E e E    +E   Q
|----------------|-----------------------||
|----------------|---------8b9==(8)r-----||
|-9------9-----9-|---9---9---------------||
|----------------|-----------------------||
|----------------|-----------------------||
|----------------|-----------------------||


   Chorus
    N.C.
    Gtrs I, II
    E E E E +Q   Q    E E E E +Q   E E   E E E E +Q   Q    E E E E +Q   E E
||------------------|------------------|-----------------|-------------------||
||o-----------------|------------------|-----------------|------------------o||
||------------------|------------------|-----------------|-------------------||
||--------6-(6)--9--|------------------|-------6-(6)--9--|-------------------||
||o-7---------------|-------4-(4)--7---|-7---------------|-------4-(4)--7---o||
||------------------|-5----------------|-----------------|-5-----------------||


    Gtr I
    Q   E E E  E  +Q     Q.     a  E  +Q   E E
||---------------------|-----------------------|
||o----12--------------|-----------------------|
||-----13-----11-(11)--|-9-----------------9---|
||---------------------|--------9s11-(11)------|
||o--------------------|-----------------------|
||---------------------|-----------------------|
|
|   Gtr II
|   Q   Q   E  E   Q     H             H
||---------------------|-----------------------|
||o--------------------|-----------------------|
||------9------9-------|-6tr5------------------|
||------9------9-------|-7---------------------|
||o--------------------|-----------------------|
||---------------------|-----------------------|


  Q    Q   E  E Q     Q.      E  Q   Q    4x
|------------------|----------------12----||
|------------12----|-14------12h14-------o||
|----/13--13-------|----------------------||
|------------------|----------------------||
|------------------|---------------------o||
|------------------|----------------------||
|
| Q    Q   E  E Q     H          H        4x
|------------------|----------------------||
|------------------|---------------------o||
|------9------9----|--6tr5----------------||
|------9------9----|--7-------------------||
|------------------|---------------------o||
|------------------|----------------------||


  H.=H
  Q   E E E  E  +Q     Q.     a  E  +Q   E E
|--------------------|-----------------------|
|----12--------------|-----------------------|
|----13-----11-(11)--|-9-----------------9---|
|--------------------|--------9s11-(11)------|
|--------------------|-----------------------|
|--------------------|-----------------------|
|
| Q   Q   E  E   Q     H             H
|--------------------|-----------------------|
|--------------------|-----------------------|
|-----9------9-------|-6tr5------------------|
|-----9------9-------|-7---------------------|
|--------------------|-----------------------|
|--------------------|-----------------------|


  Q    Q   E  E Q     Q.      E  Q   Q
|------------------|----------------12--||
|------------12----|-14------12h14------||
|----/13--13-------|--------------------||
|------------------|--------------------||
|------------------|--------------------||
|------------------|--------------------||
|
| Q    Q   E  E Q     H          H
|------------------|--------------------||
|------------------|--------------------||
|------9------9----|--6tr5--------------||
|------9------9----|--7-----------------||
|------------------|--------------------||
|------------------|--------------------||


 Outro
  E
   H         +Q    Q      Q      +E   E  E  E  Q
|-14b16=====(14)--14r--|-14b16r=(14)p12----12-14--|
|----------------------|----------------14--------|
|----------------------|--------------------------|
|----------------------|--------------------------|
|----------------------|--------------------------|
|----------------------|--------------------------|
|
|  TP                     TP
|  W                     +W
|----------------------|--------------------------|
|----------------------|--------------------------|
|--9-------------------|-(9)----------------------|
|--9-------------------|-(9)----------------------|
|--7-------------------|-(7)----------------------|
|----------------------|--------------------------|


   E   E  E  E  E  Q      +E
|-12-----------12-14b16r=(14)-|
|-----14-12-14----------------|
|-----------------------------|
|-----------------------------|
|-----------------------------|
|-----------------------------|
|
|  TP
| +W
|-----------------------------|
|-----------------------------|
|-(9)-------------------------|
|-(9)-------------------------|
|-(7)-------------------------|
|-----------------------------|


   E  E  E  E  E  E  Q     Q      +E   E  E  E  Q
|-12----12-14-12----12--|-14b16r=(14)p12----12-14--|
|----14----------14-----|----------------14--------|
|-----------------------|--------------------------|
|-----------------------|--------------------------|
|-----------------------|--------------------------|
|-----------------------|--------------------------|
|
|  TP                      TP
|  W                      +W
|-----------------------|--------------------------|
|-----------------------|--------------------------|
|--9--------------------|-(9)----------------------|
|--9--------------------|-(9)----------------------|
|--7--------------------|-(7)----------------------|
|-----------------------|--------------------------|


   H         +H         Q  Q  H
|-14b16=====(14)r----|-12----------*|
|--------------------|-12----------*|
|--------------------|-------------*|
|--------------------|-------------*|
|--------------------|-------------*|
|--------------------|-------------*|
|
|  TP
| +W                    Q  Q  H
|--------------------|-------------*|
|--------------------|-------------*|
|-(9)----------------|--1----------*|
|-(9)----------------|--2----------*|
|-(7)----------------|-------------*|
|--------------------|-------------*|


Duration Legend
---------------
W - whole; H - half; Q - quarter; E - 8th; S - 16th; T - 32nd; X - 64th; a - acciaccatura
+ - note tied to previous; . - note dotted; .. - note double dotted
Uncapitalized letters represent notes that are staccato (1/2 duration)
Irregular groupings are notated above the duration line
Duration letters will always appear directly above the note/fret number it represents the
duration for.  Duration letters with no fret number below them represent rests.  Multi-
bar rests are notated in the form Wxn, where n is the number of bars to rest for.  Low
melody durations appear below the staff

Tablature Legend
----------------
 h   - hammer-on
 p   - pull-off
 b   - bend
 pb  - pre-bend
 r   - bend release (if no number after the r, then release immediately)
 /\  - slide into or out of (from/to "nowhere")
 s   - legato slide
 S   - shift slide
  - natural harmonic
[n]  - artificial harmonic
n(n) - tapped harmonic
 ~   - vibrato
 tr  - trill
 T   - tap
 TP  - trem. picking
 PM  - palm muting
\n/  - tremolo bar dip; n = amount to dip
 \n  - tremolo bar down
 n/  - tremolo bar up
/n\  - tremolo bar inverted dip
 =   - hold bend; also acts as connecting device for hammers/pulls
 <>  - volume swell (louder/softer)
 x   - on rhythm slash represents muted slash
 o   - on rhythm slash represents single note slash

Misc Legend
-----------
 |  - bar
||  - double bar
||o - repeat start
o|| - repeat end
*|  - double bar (ending)
 :  - bar (freetime)
 $  - Segno
 &  - Coda
Tempo markers -  = BPM(8/16=s8/s16), where s8 = swing 8ths, s16 = swing 16ths
Добавлено: 04.11.2015
Другие материалы по этой песне:
  • Аккорды и текст

Страница создана 04.11.2015
http://primanota.ru/grateful-dead/turn-on-your-lovelight-live-chords.htm
Привет, Гость.
Предлагаем пройти революционный курс по гитаре.
Подарок от PrimaNota.Ru, забирай!