PrimaNota.ru - самый крупный в мире бесплатный архив песенных текстов, аккордов, табулатур и нот


Grateful Dead - Space Your Grease - таба, видео

Регистрация Запомнить меня
Войти через:  Facebook Google Twitter Vk Yandex Mail.ru

Grateful Dead - Space Your Grease - таба, видео

Печатать
Просмотров: 108
This song is awesome. They did it live and it is called Space Your Grease.

Tuning: EBGDAE

E---------------3----0-0-0--19-20-21-21-21-22-21-21-3p5-7-6-5--|
B------------2----2--0-0-0-------------------------------------|
G---------3--------3-0-0-0-------------------------------------|
D---------0----------0-0-0-------------------------------------|
A--------------------0-0-0-------------------------------------|
E--3--3--------------0-0-0-------------------------------------|

E-------------------------------9--10-11-12--9----22-23-24-25--|
B-----------------------------8----------------10--------------|
G---------------------------7---------------------9------------|
D--------------------------8------------------------11---------|
A----------------7-9b(10)9-----------------------------12-11---|
E--9--9--10--9-------------------------------------------------|

Verse:

E-0--0--0---0--0--0------0---0----0----0--0-----------------5--|
B---------------------------------------------------6-7-8-9----|
G-----------------------------------------5-6-7-8-9------------|
D-------------------------------5-6-7-8-9----------------------|
A---------------------5-6-7-8-9--------------------------------|
E-0-1-2-3-4-5-6-7-8-9------------------------------------------|

E----29-28-27-25-24-38--14--shiggity-shiggity-shwa-------------|
B-----0--0--0--0--0--5---8--shiggity-shiggity-shwa-------------|
G---------------------------shiggity-shiggity-shwa-------------|
D-------13-----9---------0--shiggity-shiggity-shwa-------------|
A------------------8-8-8-8--shiggity-shiggity-shwa-------------|
E---------------------------shiggity-shiggity-shwa-------------|

Chorus:

E--------------------------------------------------------------|
B--------------------------------------------------------------|
G--------------------------------------------------------------|
D--------------------------------------------------------------|
A--------------------------------------------------------------|
E---0----------------------------------------------------------|

Solo:

E-1---------------------2--------------------------------------|
B---1-----------------2----------------------------------------|
G-----1-------------2------------------------------------------|
D-------1---------2--------------------------------------------|
A---------1-----2----------------------------------------------|
E-----------1-2------------------------------------------------|

Verse:
OOOOOOOH YEEEEUGHHGGHGHGHGH!!!!!!!!
space your butt hole at like a trat
spin in a circle and grind holes in the ground
like a sound
you're such a mound
my panties are all prettied with lace
space your grease.........

Chorus:
DEATH BY THE SWORD!!!!!!!!!
SILK MILK!!!!!!!
and then i died with a face
line
of sugar!!!!!!!!!!!CUBEICLES
PUBICLES!!!!!!!!!

Words that are yelled as solo is played:
BLARG JARG FLARG NARG DARG BARG HARG LARGGGGGGGGOOOOOOOOOO!!!!!!!!!!!!!!
'1234567890-
OOOOOHOHOHOHOHOHOHOHHOH!OHOHOH!OH!OH!OH!OH!OH!O!H! OH!OH!HO!HO!HO!HO!HO!!!!!!!!!!!

the end.

that is the song. the intro is played in all 32nd notes and the verse is 
16th notes, and the chorus is 64th notes. i know what you are thinking - 
that is a gay song. and i agree. but its a real song and nobody has tabbed 
it soooooooooooo there ye are!
Добавлено: 24.03.2012
Другие материалы по этой песне:
  • Аккорды и текст

Страница создана 24.03.2012
http://primanota.ru/grateful-dead/space-your-grease-chords.htm
Привет, Гость.
Предлагаем пройти революционный курс по гитаре.
Подарок от PrimaNota.Ru, забирай!