PrimaNota.ru - самый крупный в мире бесплатный архив песенных текстов, аккордов, табулатур и нот


Grateful Dead - Fire On The Mountain - аккорды и текст, таба, бас-таба, видео

Регистрация Запомнить меня
Войти через:  Facebook Google Twitter Vk Yandex Mail.ru

Grateful Dead - Fire On The Mountain - аккорды и текст, таба, бас-таба, видео

Печатать
Просмотров: 240
Уроки эстрадного вокала в Санкт-Петербурге
Авторы: Mickey Hart, Robert Hunter

Fire On The Mountain
Grateful Dead


B                              A
Long distance runner, what you standin' there for
B                   A
Get up, get up, get out of the door
B                              A
Your playin' cold music on the barroom floor
B                            A
Drowned in your laughter and dead to the core.
B                                    A
There's a dragon with matches that's loose on the town
B                                  A
Take a whole pail of water just to cool him down.

B                 A
Fire  Fire on the mountain 

Almost ablaze still you don't feel the heat
It takes all you got just to stay on the beat.
You say it's a livin', we all gotta eat
But you're here alone, there's no one to compete.
If mercy's in bus'ness, I wish it for you
More than just ashes when your dreams come true.

Fire  Fire on the mountain 

Long distance runner, what you holdin' out for
Caught in slow motion in a dash for the door.
The flame from your stage has now spread to the floor
You gave all you had, Why you wanna give more
The more that you give, the more it will take
Till the thin line beyond which you really can't fake.

Fire  Fire on the mountain 
OutroE-----------------------------------------------------------
B-----------------------------------------------------------
G-----------------------------------------------------------
D-------9-9--9---9---9---------7-7--------------------------
A-----9------------9---------7------------------------------
E---7----------7-----------5----------5--0--5--7p5--0-------

E----------------------7--6---------------------------------
B---7---76--7---9--7--------10--9--10----------------------
G-----------------------------------------------------------
D-----------------------------------------------------------
A-----------------------------------------------------------
E-----------------------------------------------------------E---19----18--16--14--11--------------17--16---14----14--16-
B-------------------------14--12--14--------------17--------
G-----------------------------------------------------------
D-----------------------------------------------------------
A-----------------------------------------------------------
E-----------------------------------------------------------



Добавлено: 25.12.2013
Другие материалы по этой песне:
  • Аккорды и текст

Страница создана 28.02.2012
http://primanota.ru/grateful-dead/fire-on-the-mountain-chords.htm
Привет, Гость.
Предлагаем пройти революционный курс по гитаре.
Подарок от PrimaNota.Ru, забирай!