PrimaNota.ru - самый крупный в мире бесплатный архив песенных текстов, аккордов, табулатур и нот


Grateful Dead - Cryptical envelopment - таба, видео

Регистрация Запомнить меня
Войти через:  Facebook Google Twitter Vk Yandex Mail.ru

Grateful Dead - Cryptical envelopment - таба, видео

Печатать
Просмотров: 102
Авторы музыки: Jerry Garcia
Авторы текста: Jerry Garcia


This is the intro to Cryptical Envelopment...sorry i dont have the rest 
but im tryin to find it myself...if its wrong please correct me at 
glassjaw08punK@yahoo.com



1 ------------------------|-----109-----10--9--10--12-|--12--10--9-------------10--|
2 ----9-------9-----9--10-|--9--------9----------------|-------------12--11/12------|
3 --9---11p9-----9--------|----------------------------|----------------------------|
4 ------------------------|----------------------------|----------------------------|
5 ------------------------|----------------------------|----------------------------|
6 ------------------------|----------------------------|----------------------------|


1 -------------------------------------|
2 --------10--12^-12^--10------10------|
3 -------------------------12------12--|
4 --9h11-------------------------------|
5 -------------------------------------|
6 -------------------------------------|


Добавлено: 06.10.2013
Другие материалы по этой песне:
  • Аккорды и текст

Страница создана 06.10.2013
http://primanota.ru/grateful-dead/cryptical-envelopment-chords.htm
Привет, Гость.
Предлагаем пройти революционный курс по гитаре.
Подарок от PrimaNota.Ru, забирай!