PrimaNota.ru - самый крупный в мире бесплатный архив песенных текстов, аккордов, табулатур и нот


Grateful Dead - Big Railroad Blues - аккорды и текст, видео

Регистрация Запомнить меня
Войти через:  Facebook Google Twitter Vk Yandex Mail.ru

Grateful Dead - Big Railroad Blues - аккорды и текст, видео

Печатать
Просмотров: 64
Авторы: Noah Lewis

Big Railroad Blues
Grateful Dead
Intro: +Riff 
 
         A
Well my mama told me, my papa told me too, 
        D                          A
Now my mama told me, papa told me too, 
        E
Well I shouldn't be here 
           D                   A
Tryin' to sing these railroad blues. 
 
Wish I had a'listened, oh-oh to what mama said, 
Wish I had a'listened, oh-oh to what mama said, 
Well I wouldn't be here 
Tryin' to sleep in this cold iron bed. 
 
Well I went to the depot, I never got there on time, 
Went down to the depot, never got there on time. 
Well my train done left, 
She's a rollin' down the line. 
 
Mister jailer go away now, don't tell me no lies, 
Mister jailer go away, don't tell me no lies, 
When the train's going down, 
She's rollin' down the line. 
 
Well my mama told me, my papa told me too, 
Now my mama told me, papa told me too, 
Well I shouldn't be here 
Tryin' to sing these railroad blues. 
 
Intro:
(^) Slide Up  () Slide Down  (h) Hammer On  (p) Pull Off  (b) Bend 
 
E----------------------------------------------------------- 
B----------------------------------------------------------- 
G--2-2-----------2-2-0-------------------------------------- 
D--2-2---2-4-4---2-2---4-2-2---2---------------------------- 
A----------0-0---------------4------------------------------ 
E----------------------------------------------------------- 
 
E----------------------------------------------------------- 
B----------------------------------------------------------- 
G----------------2--2--------------------------------------- 
D--2------2-2-4--2--2--4--2--2-----2------------------------ 
A--0--3h4-----------------------4--------------------------- 
E----------------------------------------------------------- 
 
Riff:
(^) Slide Up  () Slide Down  (h) Hammer On  (p) Pull Off  (b) Bend 
 
E----------------------------------------------------------- 
B--5^7--5--------------------------------------------------- 
G----------6---2-2------------------------------------------
D----------------------------------------------------------- 
A----------------------------------------------------------- 
E-----------------------------------------------------------
Добавлено: 03.03.2016
Другие материалы по этой песне:

Страница создана 28.04.2012
http://primanota.ru/grateful-dead/big-railroad-blues-chords.htm
Привет, Гость.
Предлагаем пройти революционный курс по гитаре.
Подарок от PrimaNota.Ru, забирай!