PrimaNota.ru - самый крупный в мире бесплатный архив песенных текстов, аккордов, табулатур и нот


Grass Widow - Lulus Lips - таба, видео

Регистрация Запомнить меня
Войти через:  Facebook Google Twitter Vk Yandex Mail.ru

Grass Widow - Lulus Lips - таба, видео

Печатать
Просмотров: 70
-------------------------------------------------------------------------------
                            LULU'S LIPS - Grass Widow
-------------------------------------------------------------------------------
Tabbed by: Em
E-mail:

Tuning: Standard

Verse
e|---------------------------------------------------------------------------|
B|---------------------------------------------------------------------------|
G|---------------------------------------------------------------------------|
D|---------------------------------------------------------------------------|
A|-9h10-10--10-10-10--9h10-10--10-10-10--9h10-10--10-10-10--9h10-10--10-10-10|
E|---------------------------------------------------------------------------|

e|---------------------------------------------------------------------------|
B|---------------------------------------------------------------------------|
G|---------------------------------------------------------------------------|
D|---------------------------------------9h10-10--10-10-10--9h10-10--10-10-10|
A|-9h10-10--10-10-10--9h10-10--10-10-10--------------------------------------|
E|---------------------------------------------------------------------------|

e|---------------------------------------------------------------------------|
B|---------------------------------------------------------------------------|
G|---------------------------------------------------------------------------|
D|-7-7-7-7-7-7-7-7-7-7-7-7-7-7-7-7-------------------------------------------|
A|----------------------------------9h10-10--10-10-10--9h10-10--10-10-10-----|
E|---------------------------------------------------------------------------|

e|---------------------------------------------------------------------------|
B|---------------------------------------------------------------------------|
G|---------------------------------------------------------------------------|
D|---------------------------------------9h10-10--10-10-10--9h10-10--10-10-10|
A|-9h10-10--10-10-10--9h10-10--10-10-10--------------------------------------|
E|---------------------------------------------------------------------------|

e|---------------------------------------------------------------------------|
B|---------------------------------------------------------------------------|
G|---------------------------------------------------------------------------|
D|-7-7-7-7-7-7-7-7-7-7-7-7-7-7-7-7-------------------------------------------|
A|----------------------------------9h10-10--10-10-10--9h10-10--10-10-10-----|
E|---------------------------------------------------------------------------|

e|---------------------------------------------------------------------------|
B|---------------------------------------------------------------------------|
G|---------------------------------------------------------------------------|
D|-------------------------------------3-3-3-3-3-3-3-3-3-3-3-3-3-3-3-3-------|
A|----3-3-3-3-3-3-3-3-3-3-3-3-3-3-3-3--3-3-3-3-3-3-3-3-3-3-3-3-3-3-3-3-------|
E|----3-3-3-3-3-3-3-3-3-3-3-3-3-3-3-3--1-1-1-1-1-1-1-1-1-1-1-1-1-1-1-1-------|

Chorus
e|---------------------------------------------------------------------------|
B|---------------------------------------------------------------------------|
G|---------------------------------------------------------------------------|
D|--10--10--10-10-10--10--10--10-10-10--10--10--10-10-10--10--10--10-10-10---|
A|--10--10--10-10-10--10--10--10-10-10--10--10--10-10-10--10--10--10-10-10---|
E|--7/8-8---8--8--8---7/8-8---8--8--8---7/8-8---8--8--8---7/8-8---8--8--8----|

e|---------------------------------------------------------------------------|
B|---------------------------------------------------------------------------|
G|---------------------------------------------------------------------------|
D|-10-10-10-10-10-10--10-10-10-10-10-10--12-12-12-12-12-12--7-7-7-7-7-7------|
A|-10-10-10-10-10-10--10-10-10-10-10-10--12-12-12-12-12-12--7-7-7-7-7-7------|
E|-8--8--8--8--8--8---8--8--8--8--8--8---10-10-10-10-10-10--5-5-5-5-5-5------|

e|---------------------------------------------------------------------------|
B|---------------------------------------------------------------------------|
G|---------------------------------------------------------------------------|
D|-10-10-10-10-10-10--10-10-10-10-10-10--12-12-12-12-12-12--6-6-6-6-6-6------|
A|-10-10-10-10-10-10--10-10-10-10-10-10--12-12-12-12-12-12--6-6-6-6-6-6------|
E|-8--8--8--8--8--8---8--8--8--8--8--8---10-10-10-10-10-10--4-4-4-4-4-4------|

e|---------------------------------------------------------------------------|
B|---------------------------------------------------------------------------|
G|---------------------------------------------------------------------------|
D|-10-10-10-10-10-10--10-10-10-10-10-10--12-12-12-12-12-12-------------------|
A|-10-10-10-10-10-10--10-10-10-10-10-10--12-12-12-12-12-12-------------------|
E|-8--8--8--8--8--8---8--8--8--8--8--8---10-10-10-10-10-10-------------------|

e|---------------------------------------------------------------------------|
B|---------------------------------------------------------------------------|
G|---------------------------------------------------------------------------|
D|-6-6-6-6-6-6-6-6-6-6-6-6-6-6-6-6--3-3-3-3-3-3-3-3-3-3-3-3-3-3-3-3----------|
A|-6-6-6-6-6-6-6-6-6-6-6-6-6-6-6-6--3-3-3-3-3-3-3-3-3-3-3-3-3-3-3-3----------|
E|-4-4-4-4-4-4-4-4-4-4-4-4-4-4-4-4--1-1-1-1-1-1-1-1-1-1-1-1-1-1-1-1----------|

e|---------------------------------------------------------------------------|
B|---------------------------------------------------------------------------|
G|---------------------------------------------------------------------------|
D|-6-6-6-6-6-6-6-6-6-6-6-6-6-6-6-6--3-3-3-3-3-3-3-3-3-3-3-3-3-3-3-3----------|
A|-6-6-6-6-6-6-6-6-6-6-6-6-6-6-6-6--3-3-3-3-3-3-3-3-3-3-3-3-3-3-3-3----------|
E|-4-4-4-4-4-4-4-4-4-4-4-4-4-4-4-4--1-1-1-1-1-1-1-1-1-1-1-1-1-1-1-1----------|

e|---------------------------------------------------------------------------|
B|---------------------------------------------------------------------------|
G|---------------------------------------------------------------------------|
D|-6-6-6-6-6-6-6-6-6-6-6-6-6-6-6-6--3-3-3-3-3-3-3-3-3-3-3-3-3-3-3-3----------|
A|-6-6-6-6-6-6-6-6-6-6-6-6-6-6-6-6--3-3-3-3-3-3-3-3-3-3-3-3-3-3-3-3----------|
E|-4-4-4-4-4-4-4-4-4-4-4-4-4-4-4-4--1-1-1-1-1-1-1-1-1-1-1-1-1-1-1-1----------|

e|---------------------------------------------------------------------------|
B|---------------------------------------------------------------------------|
G|---------------------------------------------------------------------------|
D|-6-6-6-6-6-6-6-6-6-6-6-6-6-6-6-6--3-3-3-3-3-3-3-3-3-3-3-3-3-3-3-3----------|
A|-6-6-6-6-6-6-6-6-6-6-6-6-6-6-6-6--3-3-3-3-3-3-3-3-3-3-3-3-3-3-3-3----------|
E|-4-4-4-4-4-4-4-4-4-4-4-4-4-4-4-4--1-1-1-1-1-1-1-1-1-1-1-1-1-1-1-1----------|

Outro: play this while slowing down
e|---------------------------------------------------------------------------|
B|---------------------------------------------------------------------------|
G|---------------------------------------------------------------------------|
D|-6-6-6-6-6-6-6-6-6-6-6-6-6-6-6-6--3-3-3-3-3-3-3-3-3-3-3-3-3-3-3-3----------|
A|-6-6-6-6-6-6-6-6-6-6-6-6-6-6-6-6--3-3-3-3-3-3-3-3-3-3-3-3-3-3-3-3----------|
E|-4-4-4-4-4-4-4-4-4-4-4-4-4-4-4-4--1-1-1-1-1-1-1-1-1-1-1-1-1-1-1-1----------|

e|---------------------------------------------------------------------------|
B|---------------------------------------------------------------------------|
G|---------------------------------------------------------------------------|
D|-6-6-6-6-6-6-6-6-6-6-6-6-6-6-6-6--3-3-3-3-3-3-3-3-3-3-3-3-3-3-3-3----------|
A|-6-6-6-6-6-6-6-6-6-6-6-6-6-6-6-6--3-3-3-3-3-3-3-3-3-3-3-3-3-3-3-3----------|
E|-4-4-4-4-4-4-4-4-4-4-4-4-4-4-4-4--1-1-1-1-1-1-1-1-1-1-1-1-1-1-1-1----------|

The number of times a chord or note is written might be slightly off, listen to the recording.
************************************

| /   slide up
| \   slide down
| h   hammer-on
| p   pull-off
| ~   vibrato
| +   harmonic
| x   Mute note
| b   Bend
| pb  Pre-bend
| br  Bend release
| pbr Pre-bend release
| brb Bend release bend

************************************
Добавлено: 09.11.2013
Другие материалы по этой песне:
  • Аккорды и текст

Страница создана 09.11.2013
http://primanota.ru/grass-widow/lulus-lips-chords.htm
Привет, Гость.
Предлагаем пройти революционный курс по гитаре.
Подарок от PrimaNota.Ru, забирай!