PrimaNota.ru - самый крупный в мире бесплатный архив песенных текстов, аккордов, табулатур и нот


Grass Widow - Celebrate The Mundane - таба, видео

Регистрация Запомнить меня
Войти через:  Facebook Google Twitter Vk Yandex Mail.ru

Grass Widow - Celebrate The Mundane - таба, видео

Печатать
Просмотров: 59
-------------------------------------------------------------------------------
                        CELEBRATE THE MUNDANE - Grass Widow
-------------------------------------------------------------------------------
Tabbed by: Em
E-mail:

Tuning: Standard

e|---------------------------------------------------------------------------|
B|---------------------------------------------------------------------------|
G|---------------------------------------------------------------------------|
D|---------------------------------------------------------------------------|
A|-------10-----8----7----3------------------10------8----7----3-------------|
E|-------8-----10----9----5-------5/---------8------10----9----5-------------|

e|---------------------------------------------------------------------------|
B|---------------------------------------------------------------------------|
G|----7-7-7-7-7-7-7-7-7-7-7-7-7-7-7-7--9-9-9-9-9-9-9-9-9-9-9-9-9-9-9-9-------|
D|----8-8-8-8-8-8-8-8-8-8-8-8-8-8-8-8--10101010101010101010101010101010------|
A|----6-6-6-6-6-6-6-6-6-6-6-6-6-6-6-6--8-8-8-8-8-8-8-8-8-8-8-8-8-8-8-8-------|
E|---------------------------------------------------------------------------|

e|---------------------------------------------------------------------------|
B|---------------------------------------------------------------------------|
G|----7-7-7-7-7-7-7-7-7-7-7-7-7-7-7-7--9-9-9-9-9-9-9-9-9-9-9-9-9-9-9-9-------|
D|----8-8-8-8-8-8-8-8-8-8-8-8-8-8-8-8--10101010101010101010101010101010------|
A|----6-6-6-6-6-6-6-6-6-6-6-6-6-6-6-6--8-8-8-8-8-8-8-8-8-8-8-8-8-8-8-8-------|
E|---------------------------------------------------------------------------|

e|---------------------------------------------------------------------------|
B|--8--8--8--8--8--8--6--6--6--6--6--6---8--8--8--8--8--8--6--6--6--6--6--6--|
G|--x--x--x--x--x--x--x--x--x--x--x--x---x--x--x--x--x--x--x--x--x--x--x--x--|
D|-10-10-10-10-10-10--7--7--7--7--7--7--10-10-10-10-10-10--7--7--7--7--7--7--|
A|---------------------------------------------------------------------------|
E|---------------------------------------------------------------------------|

e|---------------------------------------------------------------------------|
B|---------------------------------------------------8-------8---8-----------|
G|--7--9-10-9-7----9----9----9h10p9-9h10p9----7-9-10---10-9----9---9---------|
D|--------------8----10---10---------------10--------------------------------|
A|---------------------------------------------------------------------------|
E|---------------------------------------------------------------------------|

e|---------------------------------------------------------------------------|
B|---------------------------------------------------------------------------|
G|--9h10p9p7h9--7--9-10-9-7----9-------9-9-----9-9-9-9-9-9-9-910101010101010-|
D|--------------------------8----10-10-----10-101010101010101010101010101010-|
A|---------------------------------------------------------------------------|
E|---------------------------------------------------------------------------|

e|---------------------------------------------------------------------------|
B|--8--8--8--8--8--8--6--6--6--6--6--6---8--8--8--8--8--8--6--6--6--6--6--6--|
G|--x--x--x--x--x--x--x--x--x--x--x--x---x--x--x--x--x--x--x--x--x--x--x--x--|
D|-10-10-10-10-10-10--7--7--7--7--7--7--10-10-10-10-10-10--7--7--7--7--7--7--|
A|---------------------------------------------------------------------------|
E|---------------------------------------------------------------------------|

e|---------------------------------------------------------------------------|
B|-6--6-6-6-6-6-6--------------------------------6--6-6--6-6-6--6-6-6--6-6-6-|
G|-5--5-5-5-5-5-5-1-1-1-2--2--2-2--2--2-2--2-2-2-5--5-5--5-5-5--5-5-5--5-5-5-|
D|-0--0-0-0-0-0-0-0-0-0-0--0--0-0--0--0-0--0-0-0-0--0-0--0-0-0--0-0-0--0-0-0-|
A|---------------------------------------------------------------------------|
E|---------------------------------------------------------------------------|

e|---------------------------------------------------------------------------|
B|---------------------------------------------------------------------------|
G|--1--1-1-1-1-1-1-1-1-1-1-1-1-1-1-------------------------------------------|
D|--0--0-0-0-0-0-0-0-0-0-0-0-0-0-0-------------------------------------------|
A|------------------------------------10-10-10-10-10-10-10-10----8--8--8--8--|
E|------------------------------------8--8--8--8--8--8--8--8----10-10-10-10--|

e|---------------------------------------------------------------------------|
B|---------------------------------------------------------------------------|
G|---------------------------------------------------------------------------|
D|---------------------------------------------------------------------------|
A|----7-7-7-7--3-3-3-3-3-3-3-3-3-3-3-3-3-3-3-3--10-10-10-10-10-10-10-10------|
E|----9-9-9-9--5-5-5-5-5-5-5-5-5-5-5-5-5-5-5-5--8--8--8--8--8--8--8--8-------|

e|---------------------------------------------------------------------------|
B|---------------------------------------------------------------------------|
G|---------------------------------------------------------------------------|
D|---------------------------------------------------------------------------|
A|-------8--8--8--8--7-7-7-7--3-3-3-3-3-3-3-3-3-3-3-3-3-3-3-3----------------|
E|------10-10-10-10--9-9-9-9--5-5-5-5-5-5-5-5-5-5-5-5-5-5-5-5----------------|

e|---------------------------------------------------------------------------|
B|---------------------------------------------------------------------------|
G|----7-7-7-7-7-7-7-7-7-7-7-7-7-7-7-7--9-9-9-9-9-9-9-9-9-9-9-9-9-9-9-9-------|
D|----8-8-8-8-8-8-8-8-8-8-8-8-8-8-8-8--10101010101010101010101010101010------|
A|----6-6-6-6-6-6-6-6-6-6-6-6-6-6-6-6--8-8-8-8-8-8-8-8-8-8-8-8-8-8-8-8-------|
E|---------------------------------------------------------------------------|

e|---------------------------------------------------------------------------|
B|---------------------------------------------------------------------------|
G|----7-7-7-7-7-7-7-7-7-7-7-7-7-7-7-7--9-9-9-9-9-9-9-9-9-9-9-9-9-9-9-9-------|
D|----8-8-8-8-8-8-8-8-8-8-8-8-8-8-8-8--10101010101010101010101010101010------|
A|----6-6-6-6-6-6-6-6-6-6-6-6-6-6-6-6--8-8-8-8-8-8-8-8-8-8-8-8-8-8-8-8-------|
E|---------------------------------------------------------------------------|

e|---------------------------------------------------------------------------|
B|--8--8--8--8--8--8--6--6--6--6--6--6---8--8--8--8--8--8--6--6--6--6--6--6--|
G|--x--x--x--x--x--x--x--x--x--x--x--x---x--x--x--x--x--x--x--x--x--x--x--x--|
D|-10-10-10-10-10-10--7--7--7--7--7--7--10-10-10-10-10-10--7--7--7--7--7--7--|
A|---------------------------------------------------------------------------|
E|---------------------------------------------------------------------------|

e|---------------------------------------------------------------------------|
B|-6--6-6-6-6-6-6--------------------------------6--6-6--6-6-6--6-6-6--6-6-6-|
G|-5--5-5-5-5-5-5-1-1-1-2--2--2-2--2--2-2--2-2-2-5--5-5--5-5-5--5-5-5--5-5-5-|
D|-0--0-0-0-0-0-0-0-0-0-0--0--0-0--0--0-0--0-0-0-0--0-0--0-0-0--0-0-0--0-0-0-|
A|---------------------------------------------------------------------------|
E|---------------------------------------------------------------------------|

e|---------------------------------------------------------------------------|
B|------------------------------------8---8--8--6--6-6--6--6-6--6-6-6--------|
G|--1--1-1-1-1-1-1-1-1-1-1-1-1-1-1----x---x--x--x--x-x--5--5-5--5-5-5--------|
D|--0--0-0-0-0-0-0-0-0-0-0-0-0-0-0---10--10-10--7--7-7--0--0-0--0-0-0--------|
A|---------------------------------------------------------------------------|
E|---------------------------------------------------------------------------|

e|---------------------------------------------------------------------------|
B|----------------------------------6--6-6--6-6-6--6-6-6--6-6-6--------------|
G|--1-1-1-2--2--2-2--2--2-2--2-2-2--5--5-5--5-5-5--5-5-5--5-5-5--------------|
D|--0-0-0-0--0--0-0--0--0-0--0-0-0--0--0-0--0-0-0--0-0-0--0-0-0--------------|
A|---------------------------------------------------------------------------|
E|---------------------------------------------------------------------------|

e|---------------------------------------------------------------------------|
B|-------------------------------------8---8--8---8--8--8--8--8-8--8-8-8-----|
G|-1--1-1-1-1-1-1-1-1-1-1-1-1-1-1-1----x---x--x---x--x--x--x--x-x--x-x-x-----|
D|-0--0-0-0-0-0-0-0-0-0-0-0-0-0-0-0---10--10-10--10-10-10--7--7-7--7-7-7-----|
A|---------------------------------------------------------------------------|
E|---------------------------------------------------------------------------|

e|---------------------------------------------------------------------------|
B|-6--6-6--6-6-6----------------------------------6--6-6--6-6-6--6-6-6--6-6-6|
G|-5--5-5--5-5-5--1-1-1-2--2--2-2--2--2-2--2-2-2--5--5-5--5-5-5--5-5-5--5-5-5|
D|-0--0-0--0-0-0--0-0-0-0--0--0-0--0--0-0--0-0-0--0--0-0--0-0-0--0-0-0--0-0-0|
A|---------------------------------------------------------------------------|
E|---------------------------------------------------------------------------|

e|---------------------------------------------------------------------------|
B|------------------------------------8---8--8--6--6-6--6--6-6--6-6-6--------|
G|--1--1-1-1-1-1-1-1-1-1-1-1-1-1-1----x---x--x--x--x-x--5--5-5--5-5-5--------|
D|--0--0-0-0-0-0-0-0-0-0-0-0-0-0-0---10--10-10--7--7-7--0--0-0--0-0-0--------|
A|---------------------------------------------------------------------------|
E|---------------------------------------------------------------------------|

e|---------------------------------------------------------------------------|
B|----------------------------------6--6-6--6-6-6--6-6-6--6-6-6--------------|
G|--1-1-1-2--2--2-2--2--2-2--2-2-2--5--5-5--5-5-5--5-5-5--5-5-5--------------|
D|--0-0-0-0--0--0-0--0--0-0--0-0-0--0--0-0--0-0-0--0-0-0--0-0-0--------------|
A|---------------------------------------------------------------------------|
E|---------------------------------------------------------------------------|

e|---------------------------------------------------------------------------|
B|---------------------------------------------------------------------------|
G|-1--1-1-1-1-1-1-1-1-1-1-1-1-1-1-1------------------------------------------|
D|-0--0-0-0-0-0-0-0-0-0-0-0-0-0-0-0------------------------------------------|
A|---------------------------------------------------------------------------|
E|---------------------------------------------------------------------------|

************************************

| /   slide up
| \   slide down
| h   hammer-on
| p   pull-off
| ~   vibrato
| +   harmonic
| x   Mute note
| b   Bend
| pb  Pre-bend
| br  Bend release
| pbr Pre-bend release
| brb Bend release bend

************************************
Добавлено: 15.11.2013
Другие материалы по этой песне:
  • Аккорды и текст

Страница создана 15.11.2013
http://primanota.ru/grass-widow/celebrate-the-mundane-chords.htm
Привет, Гость.
Предлагаем пройти революционный курс по гитаре.
Подарок от PrimaNota.Ru, забирай!