PrimaNota.ru - самый крупный в мире бесплатный архив песенных текстов, аккордов, табулатур и нот


Grass Roots - Wait A Million Years - аккорды и текст, таба, видео

Регистрация Запомнить меня
Войти через:  Facebook Google Twitter Vk Yandex Mail.ru

Grass Roots - Wait A Million Years - аккорды и текст, таба, видео

Печатать
Просмотров: 157
Wait A Million Years
Grass Roots


                         Wait A Million Years
                     (Gary Zekley - Mitch Bottler)

Intro [2X; horns enter 2nd time]:

	Bm                 A
	 v   v   v   v     v   v   v   v   
	-x-x-x-xx-xx-x-x-|-x-x-x-xx-xx-x-x-|		x: high F# on organ

	 G               F#sus    F#
	 v   v   v   v     v   v   v   v   
	-x-x-x-xx-xx-x-x-|-x-x-x-xx-xx-x-x-|

Verse 1:

	Bm           A
	All of the ...
	             G                       F#
	Waiting for you to ...
	Bm             A
	I need you ...
	             G                         F#
	Waiting for you to come ...

Chorus:

	Bm                  A
	I'd wait a ...
	                G                    F#
	Walk a million miles, ...
	Bm                    A
	I'd swim the ...
	                   G                         F#
	Climb the highest hill, ...

Riff 1 [2X; doubled by horns 2nd time]:

	[F#]
	 v   v   v   v     v   v   v   v   
	-----------------|-----------------|
	---------------2-|---------------2-|
	--------2--2-4---|--------2--2-4---|
	-4-4-4-4--4------|-4-4-4-4--4------|
	-----------------|-----------------|
	-----------------|-----------------|

Verse 2:

	As love is reality...

[repeat chorus]

Riff 2 [5X; vocal enters 2nd time]

	[F#]
	 v   v   v   v     v   v   v   v   
	-----------------|-----------------|
	---------------2-|-----------------|
	--------2--2-4---|-----------------|
	-4-4-4-4--4------|-4-4-4-44-44---2-|
	-----------------|-------------4---|
	-----------------|-----------------|

	A million years, I would ...

Verse 3:

	Pacing the floor, ...

[repeat chorus]

[repeat riff 2 (2X)]

[repeat chorus to fade]


-- another ace 60's tab from Andrew Rogers


Добавлено: 30.12.2013
Другие материалы по этой песне:
  • Аккорды и текст

Страница создана 17.04.2012
http://primanota.ru/grass-roots/wait-a-million-years-chords.htm
Привет, Гость.
Предлагаем пройти революционный курс по гитаре.
Подарок от PrimaNota.Ru, забирай!