PrimaNota.ru - самый крупный в мире бесплатный архив песенных текстов, аккордов, табулатур и нот


Grant Green - My One And Only Love - таба, видео

Регистрация Запомнить меня
Войти через:  Facebook Google Twitter Vk Yandex Mail.ru

Grant Green - My One And Only Love - таба, видео

Печатать
Просмотров: 280
Уроки эстрадного вокала в Санкт-Петербурге
Авторы музыки: Guy Wood, Robert Mellin
Авторы текста: Robert Mellin
-------------------------------------------------------------------------------
                             My One and Only Love - Grant Green
-------------------------------------------------------------------------------
Tabbed by: lithiumfaux
E-mail:

Tuning: Standard

Here are the intro chords.

     F#maj7         F#7            Bmaj7       C#m9
e|-----------------11p9------------------------------------------------------|
B|---11----11------9------7s9-----11---11------14--12------------------------|
G|---10----10------9------8-------11---11------14------11--13----------------|
D|---11----11------9------9-------13---13------12----------------------------|
A|---9-----9----------------------14---14------14----------------------------|
E|---------------------------------------------------------------------------|

     F#maj7         F#7            Bmaj7       C#m9          (then song starts)
e|-----------------11p9------------------------------------------------------|
B|---11----11------9------7s9-----11---11------14--12------------------------|
G|---10----10------9------8-------11---11------14----------------------------|
D|---11----11------9------9-------13---13------12----------------------------|
A|---9-----9----------------------14---14------14----------------------------|
E|---------------------------------------------------------------------------|


************************************

| s   slide up
| h   hammer-on
| p   pull-off
| ~   vibrato
| +   harmonic
| x   Mute note

************************************
Добавлено: 22.11.2015
Другие материалы по этой песне:
  • Аккорды и текст

Страница создана 22.11.2015
http://primanota.ru/grant-green/my-one-and-only-love-chords.htm
Привет, Гость.
Предлагаем пройти революционный курс по гитаре.
Подарок от PrimaNota.Ru, забирай!