PrimaNota.ru - самый крупный в мире бесплатный архив песенных текстов, аккордов, табулатур и нот


Grant Green - Mambo Inn - таба, видео

Регистрация Запомнить меня
Войти через:  Facebook Google Twitter Vk Yandex Mail.ru

Grant Green - Mambo Inn - таба, видео

Печатать
Просмотров: 121
-------------------------------------------------------------------------------
                             Mambo Inn - Grant Green
-------------------------------------------------------------------------------

[A]
  Gm7      C7      Fmaj7   Dm7      Gm7      C7      Fmaj7
e|----------------|----------------|----------------|----------------|
B|----------------|--------------3-|----------------|----------------|
G|----------------|----------2-----|5-------2-----5-|----------------|
D|----3---5-----2-|------3---------|----------------|----------------|
A|5---------------|----------------|----------------|----------------|
E|----------------|----------------|----------------|----------------|
 
  Gm7      C7      Fmaj7   Dm7      Gm7      C7      F6
e|----------------|----------------|----------------|----------------|
B|----------------|--------------3-|----------------|----------------|
G|----------------|----------2-----|5-------2-------|----------------|
D|----3---5-----2-|------3---------|--------------3-|----------------|
A|5---------------|----------------|----------------|----------------|
E|----------------|----------------|----------------|----------------|



[B]
  Bbm7             Eb7              Abmaj7
e|----------------|----------------|----------------|----------------|
B|----------------|----------------|----------------|----------------|
G|------5-----3---|5-----3-----5---|------3-----1---|3---------------|
D|3---------------|----------------|1---------------|----------------|
A|----------------|----------------|----------------|----------------|
E|----------------|----------------|----------------|----------------|
 
  Dm7              G7               Gm7              C7
e|----------------|----------------|----------------|----------------|
B|------5-----3---|5-----3-----5---|----------------|----------------|
G|----------------|----------------|------2---------|2---------------|
D|5---------------|----------------|5-----------5---|----------------|
A|----------------|----------------|----------------|----------------|
E|----------------|----------------|----------------|----------------|
Добавлено: 22.11.2015
Вам также может быть интересно:
Другие материалы по этой песне:
  • Аккорды и текст

Страница создана 22.11.2015
http://primanota.ru/grant-green/mambo-inn-chords.htm
Привет, Гость.
Предлагаем пройти революционный курс по гитаре.
Подарок от PrimaNota.Ru, забирай!