PrimaNota.ru - самый крупный в мире бесплатный архив песенных текстов, аккордов, табулатур и нот


Granger Smith - The Country Boy Song - таба, видео

Регистрация Запомнить меня
Войти через:  Facebook Google Twitter Vk Yandex Mail.ru

Granger Smith - The Country Boy Song - таба, видео

Печатать
Просмотров: 66
Уроки эстрадного вокала в Санкт-Петербурге
-------------------------------------------------------------------------------
                     THE COUNTRY BOY SONG - GRANGER SMITH
-------------------------------------------------------------------------------
Tabbed by: JON
E-mail: crusader57jb@gmail.com

Tuning: DROP C

 =============================================================================
                                    INTRO
 =============================================================================
PART 1
   RHYTHM CLEAN
d|---------------------------------------------------------------------------|
A|---------------------------------------------------------------------------|
F|---------------------------------------------------------------------------|
C|-----0--3/5-3~------------------0--3/5-3~----------------------------------|
G|-3/5--5--------5p3-----5----3/5--5-----------------------------------------|
C|------------------5p3p0----------------------------------------------------|

d|---------------------------------------------------------------------------|
A|---------------------------------------------------------------------------|
F|---------------------------------------------------------------------------|
C|-----0--3/5-3~------------------0--3/5-3~----------------------------------|
G|-3/5--5--------5p3-----5----3/5--5-----------------------------------------|
C|------------------5p3p0----------------------------------------------------|
 |                                                                           |
 |                                                                           |
 |  LEAD DISTORTION                                                          |
d|---------------------------------------------------------------------------|
A|---------------------------------------------------------------------------|
F|---------------------------------------------------------------------------|
C|-------------------------------------------5br-3-5p3-----------------------|
G|----------------------------------------------------5p3--------------------|
C|---------------------------------------------------------------------------|
 
PART 2
   BOTH GUITARS DISTORTION
d|---------------------------------------------------------------------------|
A|---------------------------------------------------------------------------|
F|---------------------------------------------------------------------------|
C|--------------3~-------------5br-3-5p3-------------------------------------|
G|----3h5---------------3h5-------------5p3----------------------------------|
C|-0------0----0-----0------0------------------------------------------------|

 =============================================================================
                                    VERSE
 =============================================================================

d|---------------------------------------------------------------------------|
A|---------------------------------------------------------------------------|
F|---------------------------------------------------------------------------|
C|---------------------------------------------------3~----------------------|
G|-0-0--3h5-0-0--3h5-0-0--3h5-0-0--3~-5~~----0--3h5--------------------------|
C|-0-0------0-0------0-0------0-0--3~-5~~----0------0------------------------|
  P.M.___________________________                                              TO CODA
                                           ________________  _________________
                                          |1.               |2.
d|-----------------------------------------------------X-X-------------------|
A|-----------------------------------------------------X-X-------------------|
F|-----------------------------------------------------X-X-----7--7---7--7---|
C|---------------------------------------------------X-X-X-----7--7---7--7---|
G|-0-0--3h5-0-0--3h5-0-0--3h5-0-0--3~-5~~--0-0-0-0-0-X-X-X-----5--5---5--5---|
C|-0-0------0-0------0-0------0-0--3~-5~~--0-0-0-0-0-X-X-X----0--0---0--0----|
  P.M.___________________________         P.M.______

 =============================================================================
                                    CHORUS
 =============================================================================

d|-------X-X-------X-X-------X-X---------------------------------------------------------|
A|-------X-X-------X-X-------X-X---------------------------------------------------------|
F|-5/77--X-X-5/77--X-X-5/77--X-X-5/77----------------------------------------------------|
C|-5/77--X-X-5/77--X-X-5/77--X-X-5/77------------------------------------------7-7-7-7-7-|
G|-3/55--X-X-3/55--X-X-3/55--X-X-3/55------------------------------------------7-7-7-7-7-|
C|-------X-X-------X-X-------X-X-------0~--3~--5~----0~--3~--5~----0~--3~--5~--7-7-7-7-7-|

  INTRO PART 2
  
  CODA
d|----------3~~~~-----------------------------------------------------------------X-X-|
A|-3~~~~----3~~~~----3~~~~--------------------------------------------------------X-X-|
F|-2~~~~----0~~~~----2~~~~----------------7-7--7-7--7-7--7-7----------------------X-X-|
C|-0~~~~----0~~~~----0~~~~--5br-3-5p3-----7-7--7-7--7-7--7-7--------------------X-X-X-|
G|-0~~~~----X--------0~~~~-----------5p3--5-5--5-5--5-5--5-5--3~-5~~--0-0-0-0-0-X-X-X-|
C|-0~~~~----5~~~~----0~~~~------------------------------------3~-5~~--0-0-0-0-0-X-X-X-|
                                                                     P.M.______
  CHORUS
  
  INTRO PART 1
  
  LEAD WAH
d|------------------------------------------------------------------------------------|
A|--------------6-8br--------8br-6-8p6------------------------------------------------|
F|-5pbr-5/7~--/7-7----7-5~------------7\5---------------------------------------------|
C|-----7------------------------------------------------------------------------------|
G|------------------------------------------------------------------------------------|
C|------------------------------------------------------------------------------------|

 ======================================================================================
                                       BRIDGE
 ======================================================================================
 USE CHORDS D, G, D FOR BRIDGE

  CHORUS
  
  INTRO PART 2

PUT A GOOD DIP IN
    YEE YEE!!

************************************

| /    slide up
| \    slide down
| h    hammer-on
| p    pull-off
| ~    Let ring
| *    harmonic
| P.M. Palm mute
| b    Bend
| pb   Pre-bend
| br   Bend release
| pbrb Pre-bend release bend
| brb  Bend release bend
| X    Mute string

************************************
Добавлено: 19.05.2016
Другие материалы по этой песне:
  • Аккорды и текст

Страница создана 19.05.2016
http://primanota.ru/granger-smith/country-boy-song-chords.htm
Привет, Гость.
Предлагаем пройти революционный курс по гитаре.
Подарок от PrimaNota.Ru, забирай!