PrimaNota.ru - самый крупный в мире бесплатный архив песенных текстов, аккордов, табулатур и нот


Granger Smith - Bury Me In Blue Jeans - аккорды и текст, видео

Регистрация Запомнить меня
Войти через:  Facebook Google Twitter Vk Yandex Mail.ru

Granger Smith - Bury Me In Blue Jeans - аккорды и текст, видео

Печатать
Просмотров: 108
Уроки эстрадного вокала в Санкт-Петербурге
Bury Me In Blue Jeans
Granger Smith
Capo 3
Everything is relative to Capo

I know the riffs aren't exactly right but it sounds close to me. 
This is just my second tab so any feedback is appreciated.

Chords used: (I'm not sure if the names are right but these are the fingerings I use)
G        320033
Cadd9    x32033
Em7      x22033
Dadd9/F# 2x0233
Am       x02210
Em       022000

[Intro]

e|-----3-----3---3------3------3---3-----
B|---------------------------------------
G|---0-----0---0------0------0---0-------
D|-2-----2----------0------0-------------   [x2]    or Cadd9 , G 
A|---------------------------------------
E|---------------------------------------

[Verse 1]

 I guess I learned it...
e|-----3-----3---3------3------3---3-----
B|---------------------------------------
G|---0-----0---0------0------0---0-------
D|-2-----2----------0------0-------------   [x2]    or Cadd9 , G 
A|---------------------------------------
E|---------------------------------------

I'd die in boots...
e|-----3------3---3------3-----3---3-----
B|---------------------------------------
G|---------------------------------------
D|---2------2---2------2-----2---2-------               or Em7 , Dadd9/F#
A|-3------3----------0-----0-------------
E|---------------------------------------

Cadd9
And bury me in blue jeans.

(Intro Riff) or Cadd9 , G 

[Verse 2]
G
 Couldn't be a cowboy, I'm a hundred years late,
      G                    Cadd9
 I'm a six string poet and a radio slave.
 Em7             Dadd9/F#
 I never ask for too many things,
      Dadd9/F#               G
 Just bury me in blue jeans.

[Chorus]

     Cadd9                 G
 And I know, I know that's so far to go
        Em7                   Dadd9/F# 
 Got the roots of an oak and a tumbleweed soul
     Cadd9                  G
 When my time's up all this good ol' boy needs
      Em7        Dadd9/F#     G
 Is to bury me in blue jeans.


(intro riff) 
 or Cadd9 , G   

[Verse 3] 

G
 I'm a brother, I'm a son, I'm a dad,
G                       Cadd9
 I'm a thankful one for everything I have.
Em7            Dadd9/F#
 I'm not gonna regret the past
Dadd9/F#                         G
 When they bury me in blue jeans.

[Chorus]

     Cadd9                 G
 And I know, I know that's so far to go
        Em7                   Dadd9/F# 
 Got the roots of an oak and a tumbleweed soul
     Cadd9                  G
 When my time's up all this good ol' boy needs
      Em7        Dadd9/F#     G
 Is to bury me in blue jeans.

[Bridge]

Am , Em , Cadd9 , G
Am , Em , Dadd9/F#

(intro riff) 
 or Cadd9 , G  

 Something faded and worn...
e|-----3-----3---3------3------3---3-----
B|---------------------------------------
G|---0-----0---0------0------0---0-------
D|-2-----2----------0------0-------------   [x2]    or Cadd9 , G 
A|---------------------------------------
E|---------------------------------------

 
 And throw this old guitar...
e|-----3------3---3------3-----3---3-----
B|---------------------------------------
G|---------------------------------------
D|---2------2---2------2-----2---2-------               or Em7 , Dadd9/F#
A|-3------3----------0-----0-------------
E|---------------------------------------


 When you bury me in blue jeans.
e|-----3--------3-----3---
B|-------3------------3---
G|----0---------------0---                             or Dadd9/F# , G
D|--0---------0-------0---   
A|--------------------x---
E|--------------------x---

G , G , Cadd9 , Cadd9 , Em7 , Em7 , Dadd9/F#

G , Cadd9 , Em7 , Dadd9/F#   
Добавлено: 25.09.2015
Другие материалы по этой песне:
  • Аккорды и текст

Страница создана 25.09.2015
http://primanota.ru/granger-smith/bury-me-in-blue-jeans-chords.htm
Привет, Гость.
Предлагаем пройти революционный курс по гитаре.
Подарок от PrimaNota.Ru, забирай!