PrimaNota.ru - самый крупный в мире бесплатный архив песенных текстов, аккордов, табулатур и нот


Grandmaster Flash - White Lines - текст песни, бас-таба, видео

Регистрация Запомнить меня
Войти через:  Facebook Google Twitter Vk Yandex Mail.ru

Grandmaster Flash - White Lines - текст песни, бас-таба, видео

Печатать
Просмотров: 49
White Lines (Don't Don't Do It)
Artist: Grandmaster Flash & Melle Mel
1983 single
Tab by LoudLon
loudlon@yahoo.com

Standard tuning EADG

Intro & Verses

G |-----------------|-----------------|-----------------|-----------------|
D |-----------------|-----------------|-----------------|-----------------|
A |-03-03-03-030----|-03-03-03-030----|-03-03-03-0303-03|--0303-03-030----|
E |-----------------|-----------------|-----------------|-----------------|
    1 & 2 & 3 & 4 &   1 & 2 & 3 & 4 &   1 & 2 & 3 & 4 &   1 & 2 & 3 & 4 &

   "Ahhhh, get higher baby..."
          x4
G |-----------------|
D |-----------------|
A |-----------------|
E |-3---------------|
    1 & 2 & 3 & 4 &

Or, alternately:

    "Ahhhh, get higher baby..."
G |-----------------|-----------------|-12--------------|-14--------------|
D |-----------------|-9---------------|-----------------|-----------------|
A |-10--------------|-10--------------|-10--------------|-10--------------|
E |-----------------|-----------------|-----------------|-----------------|
    1 & 2 & 3 & 4 &   1 & 2 & 3 & 4 &   1 & 2 & 3 & 4 &   1 & 2 & 3 & 4 &


    "Freeze!...........Rock!"
                     ***
G |-----------------|-----------------|-----------------|-----------------|
D |---53-035-5-3-035|---53-035-5-3-035|---53-035-5-3-035|---53-035-5-3-035|
A |-----------------|-----------------|-----------------|-----------------|
E |-3-------3-------|-3---------------|-3-------3-------|-3-------3-------|
    1 & 2 & 3 & 4 &   1 & 2 & 3 & 4 &   1 & 2 & 3 & 4 &   1 & 2 & 3 & 4 &

*** Occasionally switch up the 2nd bar with:

G |---------3-------|
D |---53-035-53---35|
A |------------543--|
E |-3---------------|
    1 & 2 & 3 & 4 &
Добавлено: 07.11.2013
Другие материалы по этой песне:

Страница создана 31.07.2012
http://primanota.ru/grandmaster-flash/white-lines-chords.htm
Привет, Гость.
Предлагаем пройти революционный курс по гитаре.
Подарок от PrimaNota.Ru, забирай!