PrimaNota.ru - самый крупный в мире бесплатный архив песенных текстов, аккордов, табулатур и нот


Grandaddy - Jeds Other Poem - таба, видео

Регистрация Запомнить меня
Войти через:  Facebook Google Twitter Vk Yandex Mail.ru

Grandaddy - Jeds Other Poem - таба, видео

Печатать
Просмотров: 133
Artist: GRANDADDY
Title: Jed's other poem (beautiful ground)         
Album: The sophtware slump
Tabbed by: p.chandeze@infonie.fr
 

-------------------------------------------------------------------
-12----12----12----12----13----13----13----13----13----13----13----
-12----12----12----12----14----14----14----12----12----12----12----
----14----14----14----14----15----15----15----15----14----14----14-
-------------------------------------------------------------------
-------------------------------------------------------------------
 
------------------------------------------------------------
13----13----13----13----13----12----12----12----12----------
12----12----12----12----12----10----10----10----10----------
---14----12----12----12----12----12----12----12----12-------
------------------------------------------------------------
------------------------------------------------------------
 
Chords:
Dm : 5 5 7 7 6 5
Am : 0 0 2 2 1 0
F : 1 3 3 2 1 1
C : 3 3 5 5 5 3
Fm : 1 3 3 1 1 1
 
Outro : Dm, Am, F, C, Dm, Am, F, C ...
       ... Dm, Am, F, Fm
 
     
Добавлено: 26.09.2013
Другие материалы по этой песне:
  • Аккорды и текст

Страница создана 26.09.2013
http://primanota.ru/grandaddy/jeds-other-poem-chords.htm
Привет, Гость.
Предлагаем пройти революционный курс по гитаре.
Подарок от PrimaNota.Ru, забирай!