PrimaNota.ru - самый крупный в мире бесплатный архив песенных текстов, аккордов, табулатур и нот


Grandaddy - Am 1 - таба, видео

Регистрация Запомнить меня
Войти через:  Facebook Google Twitter Vk Yandex Mail.ru

Grandaddy - Am 1 - таба, видео

Печатать
Просмотров: 173
Band: Grandaddy
Tab by: Christopher Dineen (superflypimpguy_2000@yahoo.com)
Tuning: standard
Notes: I've noticed the lack of Grandaddy guitar tabs on the net so I thought i'd give am 180 a bash.
       It's also my first tab so don't start harassing me if you think it's crap.


Mad keyboard noises arranged for guitar:

 (clean)

E-/17-13----15-17-15--------------------------15-15-13-~-~-|
B-------------------15----15-18-17-13----13----------------|
G----------------------------------------------------------|
D----------------------------------------------------------|
A----------------------------------------------------------|
E----------------------------------------------------------|


FIG 1 (clean)
E--17-13----15-17-15--------------------------15-15-13----|
B-------------------15----15-18-17-13----13---------------|
G---------------------------------------------------------|
D---------------------------------------------------------|
A---------------------------------------------------------|
E---------------------------------------------------------|

FIG 2 (distorted) (played under FIG 1)
E---------------------------------------------------------|
B---------------------------------------------------------|
G---------------------------------------------------------|
D--8-8-8-8-8/9-9-9-9-9/10101010\3-3-3-3-3-----------------|	(x4 during intro)
A--8-8-8-8-8/9-9-9-9-9/10101010\3-3-3-3-3-----------------|
E--6-6-6-6-6/7-7-7-7-7/-8-8-8-8\1-1-1-1-1-----------------|




just singing.




play FIG 1 (x4)

play FIG 2 under it (x4)




more singing




play FIG 1 (x2)

play FIG 2 (x2)

the play this twice over FIG 1 only:

FIG 3 (distorted)
E---------------------------------------------------------|
B---------------------------------------------------------|
G--14~-~------13~-~------14~-~------10~-~-----------------|
D---------------------------------------------------------| (x2)
A---------------------------------------------------------|
E---------------------------------------------------------|


then this:

FIG 1 (x4)

FIG 2 (X4)

AND THIS:

     /-------/------(this part is played during the last note in FIG 3)
    /       /
E--/-------/----------------------------------------------------------|
B-/-------/-----------------------------------------------------------|
G-14-14-10~--/14---14-14-15-17-15-14---14-12-14-14-12--14-----13b(14)-|
D---------------------------------------------------------------------|
A---------------------------------------------------------------------|
E---------------------------------------------------------------------|


E--------------------------------------------------------------------|
B--------------------------------------------------------------------|
G--14---14-14-15-17-15-14---14-12-14-14-12--14-----13b(14)-----------|
D--------------------------------------------------------------------| 	(note that all the
A--------------------------------------------------------------------|	 bends are quick)
E--------------------------------------------------------------------|


E--------------------------------------------------------------------|
B--------------------------------------------------------------------|
G--14---14-14-15-17-15-14---14-12-14-14-12--14-----13b(14)-----------|
D--------------------------------------------------------------------|
A--------------------------------------------------------------------|
E--------------------------------------------------------------------|

					hold note for about 2 seconds then quickly slide down and stop.
						/
E----------------------------------------------/---------------------|
B---------------------------------------------/----------------------|
G--14---14-14-15-17-15-14---14-12-14-14-12--14\----------------------|
D--------------------------------------------------------------------|
A--------------------------------------------------------------------|
E--------------------------------------------------------------------|

You'll have to listen pretty hard to make all of this out (but the bends should
be easy to hear so use them as a guide for the rest). If you can't hear
it and don't have a clue, then just play random notes in the 14 fret followed
by the quick bend and it should sound okay.




The singing goes on for a bit.


Just after you hear:

"...and take on whatever together"

Something like this is played.


E--------------------------------------------------------------------|
B-------14/15--------------------------------------------------------|
G---21\-------15/16----17b(18)---------------------------------------|
D--------------------------------------------------------------------|
A-------------------0---------------0--------------------------------|
E--------------------------------------------------------------------|

Then back to

FIG 1 (x6)

and

FIG 2 (x6)


then a little piano bit and that's it!
Добавлено: 28.04.2012
Другие материалы по этой песне:
  • Аккорды и текст

Страница создана 28.04.2012
http://primanota.ru/grandaddy/am-1-chords.htm
Привет, Гость.
Предлагаем пройти революционный курс по гитаре.
Подарок от PrimaNota.Ru, забирай!