PrimaNota.ru - самый крупный в мире бесплатный архив песенных текстов, аккордов, табулатур и нот


Grand Magus - Summer Solstice - таба, видео

Регистрация Запомнить меня
Войти через:  Facebook Google Twitter Vk Yandex Mail.ru

Grand Magus - Summer Solstice - таба, видео

Печатать
Просмотров: 92
Band: Grand Magus
Song: Summer Solstice
Album: Monument
Tuning: Drop D down 2 steps


|---------|
|---------|
|---------|
|--/------|
|--/------|
|--/------|


|-------------------------------------------------------------------------------|
|-------------------------------------------------------------------------------|
|-------------------------------------------------------------------------------|
|-------------------------------------------------------------------------------|
|------5---5-5~------------------h-p---------5---5-5~-----------------h-p-------|
|--0-0---0-------0--3-3--0-5--5-3-5-3----0-0---0-------0-5-5--5-3--5-3-5-3------|



|-------------------------------------------------------------------------|
|-------------------------------------------------------------------------|
|-------------------------------------------------------------------------|
|-------------------------------------------------------------------------|
|------5---5-5~-----3-3----5--5--h-p---------5---5-5~---------------------|
|--0-0---0-------0--3-3--0-5--5-3-5-3----0-0---0-------0--5b-5b-5b-5b-----|


|-------------------------------------------------------------------------------|
|-------------------------------------------------------------------------------|
|-------------------------------------------------------------------------------|
|-------------------------------------------------------------------------------|
|------5---5-5~------------------h-p---------5---5-5~-----------------h-p-------|
|--0-0---0-------0--3-3--0-5--5-3-5-3----0-0---0-------0-5-5--5-3--5-3-5-3------|


|-------------------------------------------------------------------------|
|-------------------------------------------------------------------------|
|-------------------------------------------------------------------------|
|-------------------------------------------------------------------------|
|------5---5-5~-----3-3----5--5--h-p---------5---5-5~----5-5----5--5------|
|--0-0---0-------0--3-3--0-5--5-3-5-3----0-0---0-------0-5-5--0-7--7------|


|-------------------------------------------------------------------------| x4
|-------------------------------------------------------------------------|
|-------------------------------------------------------------------------|
|----------7--7-7-7----------5--5-5-5----------5--5-5-5-------------------|
|--0-0--0--5--5-5-5--3-3--3--3--3-3-3--3-3--3--3--3-3-3-------------------|
|--0-0--0------------3-3--3------------3-3--3------------5~--3-0-3-5~-----|


|-----------------------------------------------------------------| x2
|-----------------------------------------------------------------|
|-----------------------------------------------------------------|
|--5--7--0-0-0----5--7--0-0-0-------5-----5--------------/--------|
|--3--5--0-0-0----3--5--0-0-0-------3-----2-----3-----3--/--------|
|--------0-0-0----------0-0-0----------x-----x--3--x--2--/--------|


|-------------------------------------------------------------------------------|
|-------------------------------------------------------------------------------|
|-------------------------------------------------------------------------------|
|-------------------------------------------------------------------------------|
|------5---5-5~------------------h-p---------5---5-5~-----------------h-p-------|
|--0-0---0-------0--3-3--0-5--5-3-5-3----0-0---0-------0-5-5--5-3--5-3-5-3------|


|-------------------------------------------------------------------------|
|-------------------------------------------------------------------------|
|-------------------------------------------------------------------------|
|-------------------------------------------------------------------------|
|------5---5-5~-----3-3----5--5--h-p---------5---5-5~---------------------|
|--0-0---0-------0--3-3--0-5--5-3-5-3----0-0---0-------0--5b-5b-5b-5b-----|


|-------------------------------------------------------------------------| x4
|-------------------------------------------------------------------------|
|-------------------------------------------------------------------------|
|----------7--7-7-7----------5--5-5-5----------5--5-5-5-------------------|
|--0-0--0--5--5-5-5--3-3--3--3--3-3-3--3-3--3--3--3-3-3-------------------|
|--0-0--0------------3-3--3------------3-3--3------------5~--3-0-3-5~-----|


|-----------------------------------------------------------------| x2
|-----------------------------------------------------------------|
|-----------------------------------------------------------------|
|--5--7--0-0-0----5--7--0-0-0-------5-----5--------------/--------|
|--3--5--0-0-0----3--5--0-0-0-------3-----2-----3-----3--/--------|
|--------0-0-0----------0-0-0----------x-----x--3--x--2--/--------|


|--------------------------------------|
|--------------------------------------|
|--------------------------------------|
|--0-----------------------------------|
|--0----------5---5---5---5------------|
|--0--------0---0---0---0--------------|


|-------------------------------------------------------------------------| x4
|-------------------------------------------------------------------------|
|-------------------------------------------------------------------------|
|----------7--7-7-7----------5--5-5-5----------5--5-5-5-------------------|
|--0-0--0--5--5-5-5--3-3--3--3--3-3-3--3-3--3--3--3-3-3-------------------|
|--0-0--0------------3-3--3------------3-3--3------------5~--3-0-3-5~-----|


|-----------------------------------------------------------------| x4
|-----------------------------------------------------------------|
|-----------------------------------------------------------------|
|--5--7--0-0-0----5--7--0-0-0-------5-----5--------------/--------|
|--3--5--0-0-0----3--5--0-0-0-------3-----2-----3-----3--/--------|
|--------0-0-0----------0-0-0----------x-----x--3--x--2--/--------|


|-------------------------------------------------------------------------------|
|-------------------------------------------------------------------------------|
|-------------------------------------------------------------------------------|
|-------------------------------------------------------------------------------|
|------5---5-5~------------------h-p---------5---5-5~-----------------h-p-------|
|--0-0---0-------0--3-3--0-5--5-3-5-3----0-0---0-------0-5-5--5-3--5-3-5-3------|


|-------------------------------------------------------------------------|
|-------------------------------------------------------------------------|
|-------------------------------------------------------------------------|
|-------------------------------------------------------------------------|
|------5---5-5~-----3-3----5--5--h-p---------5---5-5~----5-5----5--5------|
|--0-0---0-------0--3-3--0-5--5-3-5-3----0-0---0-------0-5-5--0-7--7------|


|--------------------------|
|--------------------------|
|--------------------------|
|--0--0----0--0----0--0----|
|--0--0----0--0----0--0----|
|--0--0----0--0----0--0----|


Key:

/ = Slide
~ = Virbrato
h = Hammer on
p = Pull off
x = Muted string
Добавлено: 15.07.2012
Вам также может быть интересно:
Другие материалы по этой песне:
  • Аккорды и текст

Страница создана 15.07.2012
http://primanota.ru/grand-magus/summer-solstice-chords.htm
Привет, Гость.
Предлагаем пройти революционный курс по гитаре.
Подарок от PrimaNota.Ru, забирай!