PrimaNota.ru - самый крупный в мире бесплатный архив песенных текстов, аккордов, табулатур и нот


Grand Magus - Legion - таба, видео

Регистрация Запомнить меня
Войти через:  Facebook Google Twitter Vk Yandex Mail.ru

Grand Magus - Legion - таба, видео

Печатать
Просмотров: 144
Уроки эстрадного вокала в Санкт-Петербурге
Grand Magus - Legion
Tuning: Drop D down a step




D|----------------------------------------------------------------------------------------------| 
A|----------------------------------------------------------------------------------------------|x2
F|-----3--5--3--5-----8--8-----5--5-----8--8--------3--5--3--5-----8--8-----5--5-----3--3-------|
C|--5-----------------8--8-----5--5-----8--8-----5-----------------8--8-----5--5-----3--3-------|
G|-----------------0--6--6--0--3--3--0--6--6--------------------0--6--6--0--3--3--0--1--1-------|
C|----------------------------------------------------------------------------------------------|



D|-------------------------------------------------------------------------------------|  
A|-------------------------------------------------------------------------------------|x4
F|-------------------------------------------------------------------------------------|
C|--5-----5--5-----5-----8-----8--8------8---------------------------------------------|
G|--3--0--3--3--0--3-----6--0--6--6---0--6---------------------------------------------|
C|--------------------------------------------6--0--6--6--0--6----3--0--3--3--0---3----|


D|----------------------------------------------------------------------------------------------| 
A|----------------------------------------------------------------------------------------------|
F|-----3--5--3--5-----8--8-----5--5-----8--8--------3--5--3--5-----8--8-----5--5-----3--3-------|x2
C|--5-----------------8--8-----5--5-----8--8-----5-----------------8--8-----5--5-----3--3-------|
G|-----------------0--6--6--0--3--3--0--6--6--------------------0--6--6--0--3--3--0--1--1-------|
C|----------------------------------------------------------------------------------------------|


D|-------------------------------------------------------------------------------------| 
A|-------------------------------------------------------------------------------------|x4
F|-------------------------------------------------------------------------------------|
C|--5-----5--5-----5-----8-----8--8------8---------------------------------------------|
G|--3--0--3--3--0--3-----6--0--6--6---0--6---------------------------------------------|
C|--------------------------------------------6--0--6--6--0--6----3--0--3--3--0---3----|


D|---------------------------------------------------------|
A|--------------------------------------6------------------|
F|--------------------------------------5------------------|
C|--0--------3---------5--------0-------3-------5----------|
G|--0--------3---------5--------0-------3-------5----------|
C|--0--------3---------5--------0-------3-------5----------|


D|---------------------------------------------------------|
A|---------------------------------------------------------|
F|--------------------------------------10---12------------|
C|--0-----3--3--3--5--5--5--5------0----10---12------------|
G|--0-----1--1--1--3--3--3--5------0----8----10------------|
C|--0-----------------------5------0-----------------------|



D|----------------------------------------------------------------------------------------------| 
A|----------------------------------------------------------------------------------------------|x2
F|-----3--5--3--5-----8--8-----5--5-----8--8--------3--5--3--5-----8--8-----5--5-----3--3-------|
C|--5-----------------8--8-----5--5-----8--8-----5-----------------8--8-----5--5-----3--3-------|
G|-----------------0--6--6--0--3--3--0--6--6--------------------0--6--6--0--3--3--0--1--1-------|
C|----------------------------------------------------------------------------------------------|


D|-------------------------------------------------------------------------------------| 
A|-------------------------------------------------------------------------------------|x4
F|-------------------------------------------------------------------------------------|
C|--5-----5--5-----5-----8-----8--8------8---------------------------------------------|
G|--3--0--3--3--0--3-----6--0--6--6---0--6---------------------------------------------|
C|--------------------------------------------6--0--6--6--0--6----3--0--3--3--0---3----|


D|---------------------------------------------------------|
A|--------------------------------------6------------------|
F|--------------------------------------5------------------|
C|--0--------3---------5--------0-------3-------5----------|
G|--0--------3---------5--------0-------3-------5----------|
C|--0--------3---------5--------0-------3-------5----------|


D|---------------------------------------------------------|
A|---------------------------------------------------------|
F|--------------------------------------10---12------------|
C|--7-----3--3--3--5--5--5--5------0----10---12------------|
G|--5-----1--1--1--3--3--3--5------0----8----10------------|
C|--------------------------5------0-----------------------|




D|----------------------------------------------------------------------------------------------|
A|----------------------------------------------------------------------------------------------|
F|-----3--5--3--5-----8--8-----5--5-----8--8--------3--5--3--5-----8--8-----5--5-----3--3-------|
C|--5-----------------8--8-----5--5-----8--8-----5-----------------8--8-----5--5-----3--3-------|
G|-----------------0--6--6--0--3--3--0--6--6--------------------0--6--6--0--3--3--0--1--1-------|
C|----------------------------------------------------------------------------------------------|



D|--6--8--6-----6------------------------------------------------------------------------------|
A|-----------8-----8--6--8--6-----6------------------------------------------------------------|
F|-----------------------------8-----8--5--8--5-----5------------------------------------------|
C|-----------------------------------------------8-----8--5--8--5-----5------------------------|
G|-----------------------------------------------------------------8-----8--6--3~~---6~~--3~~--|
C|---------------------------------------------------------------------------------------------|


Добавлено: 18.06.2012
Другие материалы по этой песне:
  • Аккорды и текст

Страница создана 18.06.2012
http://primanota.ru/grand-magus/legion-chords.htm
Привет, Гость.
Предлагаем пройти революционный курс по гитаре.
Подарок от PrimaNota.Ru, забирай!