PrimaNota.ru - самый крупный в мире бесплатный архив песенных текстов, аккордов, табулатур и нот


Grand Magus - Kingslayer - таба, видео

Регистрация Запомнить меня
Войти через:  Facebook Google Twitter Vk Yandex Mail.ru

Grand Magus - Kingslayer - таба, видео

Печатать
Просмотров: 105
Уроки эстрадного вокала в Санкт-Петербурге
Band: Grand Magus
Song: Kingslayer
Album: Wolf's Return
Tuning: Two steps down


|--------|
|--------|
|--------|
|-\------|
|-\------|
|-\------|

|----------------------------------------------------------|
|----------------------------------------------------------|
|----------------------------------------------------------|
|----------------------------------------------------------|
|--------7------5------7------5------7------5------8~------|
|--0-0-0---0-0----0-0----0-0----0-0----0-0----0-0----------|
 
|-----------------------------------------------------------| x2
|-----------------------------------------------------------|
|-----------------------------------------------------------|
|-----------------------------------------------------------|
|-------7------5------7------5------7------8-7-5------------|
|--0-0----0-0----0-0----0-0----0-0-----0-0-------8-7-5------|



|---------------------------|
|---------------------------|
|-----------5----4----------|
|--2--------5----4----7-----|
|--2--------3----2----7-----|
|--0------------------5-----|


|----------------------------------------------------------|
|----------------------------------------------------------|
|----------------------------------------------------------|
|----------------------------------------------------------|
|--------7------5------7------5------7------5------8~------|
|--0-0-0---0-0----0-0----0-0----0-0----0-0----0-0----------|
 

|------------------------------|
|------------------------------|
|-----------5----4-------------|
|--2--------5----4----7---/7~--|
|--2--------3----2----7--------|
|--0------------------5--------|


|----------------------------------------------------------|
|----------------------------------------------------------|
|----------------------------------------------------------|
|----------------------------------------------------------|
|--------7------5------7------5------7------5------8~------|
|--0-0-0---0-0----0-0----0-0----0-0----0-0----0-0----------|
 
|-----------------------------------------------------------| x2
|-----------------------------------------------------------|
|-----------------------------------------------------------|
|-----------------------------------------------------------|
|-------7------5------7------5------7------8-7-5------------|
|--0-0----0-0----0-0----0-0----0-0-----0-0-------8-7-5------|


|---------------------------------------|
|---------------------------------------|
|-----------------------12-------11-----|
|--5----7----2----------12-------11-----|
|--5----7----2----------10-------9------|
|--3----5----0----0-0-0----0-0-0--------|


|---------------------------------------------------------------------------------|
|---------------------------------------------------------------------------------|
|---------------------------------------------------------------------------------|
|--------5----7----2--------------------------------------------------------------|
|--------5----7----2--------------------------------------------------------------|
|--0-0-0-3----5----0--0-0-0--0-0-0--0-0-0--0-0-0--0-0-0--0-0-0--0-0-0--0-0-0------|


|------------------------------------|
|------------------------------------|
|------------5----4------------------|
|--5----7----5----4----7--/7~--------|
|--5----7----3----2----7-------------|
|--3----5--------------5-------------|


|----------------------------------------------------------|
|----------------------------------------------------------|
|----------------------------------------------------------|
|----------------------------------------------------------|
|--------7------5------7------5------7------5------8~------|
|--0-0-0---0-0----0-0----0-0----0-0----0-0----0-0----------|
 
|-----------------------------------------------------------| x2
|-----------------------------------------------------------|
|-----------------------------------------------------------|
|-----------------------------------------------------------|
|-------7------5------7------5------7------8-7-5------------|
|--0-0----0-0----0-0----0-0----0-0-----0-0-------8-7-5------|

|---------------------------|
|---------------------------|
|-----------5----4----------|
|--2--------5----4----7-----|
|--2--------3----2----7-----|
|--0------------------5-----|


|----------------------------------------------------------|
|----------------------------------------------------------|
|----------------------------------------------------------|
|----------------------------------------------------------|
|--------7------5------7------5------7------5------8~------|
|--0-0-0---0-0----0-0----0-0----0-0----0-0----0-0----------|


|------------------------------------|
|------------------------------------|
|------------5----4------------------|
|--5----7----5----4----7--/7~--------|
|--5----7----3----2----7-------------|
|--3----5--------------5-------------|


|----------------------------------------------------------|
|----------------------------------------------------------|
|----------------------------------------------------------|
|----------------------------------------------------------|
|--------7------5------7------5------7------5------8~------|
|--0-0-0---0-0----0-0----0-0----0-0----0-0----0-0----------|
 
|-----------------------------------------------------------| x2
|-----------------------------------------------------------|
|-----------------------------------------------------------|
|-----------------------------------------------------------|
|-------7------5------7------5------7------8-7-5------------|
|--0-0----0-0----0-0----0-0----0-0-----0-0-------8-7-5------|


|---------------------------------------|
|---------------------------------------|
|-----------------------12-------11-----|
|--5----7----2----------12-------11-----|
|--5----7----2----------10-------9------|
|--3----5----0----0-0-0----0-0-0--------|


|---------------------------------------------------------------------------------|
|---------------------------------------------------------------------------------|
|---------------------------------------------------------------------------------|
|--------5----7----2--------------------------------------------------------------|
|--------5----7----2--------------------------------------------------------------|
|--0-0-0-3----5----0--0-0-0--0-0-0--0-0-0--0-0-0--0-0-0--0-0-0--0-0-0--0-0-0------|


|------------------------------------|
|------------------------------------|
|------------5----4------------------|
|--5----7----5----4----7--/7~--------|
|--5----7----3----2----7-------------|
|--3----5--------------5-------------|



|-------------------------------------| x2
|-------------------------------------|
|-------------------------------------|
|--2--2--2--2-1-----2--2--2--2-1------|
|--2--2--2--2-1-----2--2--2--2-1------|
|--0--0--0--0-------0--0--0--0--------|



|-------------------------------------|
|-------------------------------------|
|-------------------------------------|
|--2--2--2--2-1-----2--2--2--2-1------|
|--2--2--2--2-1-----2--2--2--2-1------|
|--0--0--0--0-------0--0--0--0--------|
|                                     |
|-------------------------------------| x2
|-------------------------------------|
|-------------------------------------|
|-------------------------------------|
|--7t---------6t7t-------------6t7t---|
|-------------------------------------|



|--------------------------------------| 
|--------------------------------------|
|--------------------------------------|
|--2--2--1--2--2--9--10-10--7--9-------|
|--2--2--1--2--2--9--10-10--7--9-------|
|--0--0-----0--0--7--8--8---5--7-------|
|                                      |
|--------------------------------------| x2
|--------------------------------------|
|--------------------------------------|
|--------------------------------------|
|--7t----6t7t--------------------------|
|-----------------7t-8t-----5t-7t------|


|-----------------------------------------------------|             \
|-----------------------------------------------------|              \
|-----------------------------------------------------|               |
|-----------------------------------------------------|               |
|--7-7-7--7-7-7--7-7-7--6-6-6--7-7-7--7-7-7--7-7-7----|               | X3
|-----------------------------------------------------|               |
               							      |
  								      |
|------------------------------------------------------------|        |
|------------------------------------------------------------|        |
|------------------------------------------------------------|        |
|------------------------------------------------------------|       /
|------------------------------------------------------------|      /
|--7-7-7--8-8-8--8-8-8--8-8-8--5-5-5--7-7-7--7-7-7--7-7-7----|


|---------------------------------------------------------------------------------------|
|---------------------------------------------------------------------------------------|
|---------------------------------------------------------------------------------------|
|------------------------------5-5-5--5-5-5--5-5-5--7-7-7--9-9-9--9-9-9--9-9-9--9-9-9---|
|--7-7-7--7-7-7--7-7-7--9-9-9-----------------------------------------------------------|
|---------------------------------------------------------------------------------------|



|-------------------------------------------|
|-------------------------------------------|
|-------------------------------------------|
|-------------------------------------------|
|-7-7-7--7-7-7--6-6-6--6-6-6----------------|
|-------------------------------------------|



|-------------------------------------| x3
|-------------------------------------|
|-------------------------------------|
|--2--2--2--2-1-----2--2--2--2-1------|
|--2--2--2--2-1-----2--2--2--2-1------|
|--0--0--0--0-------0--0--0--0--------|


|-------------------------------------|
|-------------------------------------|
|-------------------------4-----------|
|--2--2--2--2-1-----2--2--4-----------|
|--2--2--2--2-1-----2--2--2-----------|
|--0--0--0--0-------0--0--------------|


|----------------------------------------------------------|
|----------------------------------------------------------|
|----------------------------------------------------------|
|----------------------------------------------------------|
|--------7------5------7------5------7------5------8~------|
|--0-0-0---0-0----0-0----0-0----0-0----0-0----0-0----------|

 
|-----------------------------------------------------------|
|-----------------------------------------------------------|
|-----------------------------------------------------------|
|-----------------------------------------------------------|
|-------7------5------7------5------7------8-7-5------------|
|--0-0----0-0----0-0----0-0----0-0-----0-0-------8-7-5------|


|---------------------------------------|
|---------------------------------------|
|-----------------------12-------11-----|
|--5----7----2----------12-------11-----|
|--5----7----2----------10-------9------|
|--3----5----0----0-0-0----0-0-0--------|


|---------------------------------------------------------------------------------|
|---------------------------------------------------------------------------------|
|---------------------------------------------------------------------------------|
|--------5----7----2--------------------------------------------------------------|
|--------5----7----2--------------------------------------------------------------|
|--0-0-0-3----5----0--0-0-0--0-0-0--0-0-0--0-0-0--0-0-0--0-0-0--0-0-0--0-0-0------|


|------------------------------------|
|------------------------------------|
|------------5----4------------------|
|--5----7----5----4----7--/7~--------|
|--5----7----3----2----7-------------|
|--3----5--------------5-------------|


|----------------------------------------------------------|
|----------------------------------------------------------|
|----------------------------------------------------------|
|----------------------------------------------------------|
|--------7------5------7------5------7------5------8~------|
|--0-0-0---0-0----0-0----0-0----0-0----0-0----0-0----------|

 
|-----------------------------------------------------------|
|-----------------------------------------------------------|
|-----------------------------------------------------------|
|-----------------------------------------------------------|
|-------7------5------7------5------7------8-7-5------------|
|--0-0----0-0----0-0----0-0----0-0-----0-0-------8-7-5------|

|----------------------------------------------------------|
|----------------------------------------------------------|
|----------------------------------------------------------|
|----------------------------------------------------------|
|--------7------5------7------5------7------5------8~------|
|--0-0-0---0-0----0-0----0-0----0-0----0-0----0-0----------|

 
|-------------------------------------------------------------------------------------------|
|-------------------------------------------------------------------------------------------|
|-------------------------------------------------------------------------------------------|
|-----------------------------------------------------------------------------------2-------|
|-------7------5------7------5------7------8-7-5--------8-7-5---------8-7-5---------2-------|
|--0-0----0-0----0-0----0-0----0-0-----0-0-------8-7-5---------8-7-5---------8-7-5--0-------|




Key:

/ = Slide
~ = Virbrato
t = tremolo pick
Добавлено: 01.07.2012
Другие материалы по этой песне:

Страница создана 01.07.2012
http://primanota.ru/grand-magus/kingslayer-chords.htm
Привет, Гость.
Предлагаем пройти революционный курс по гитаре.
Подарок от PrimaNota.Ru, забирай!