PrimaNota.ru - самый крупный в мире бесплатный архив песенных текстов, аккордов, табулатур и нот


Grand Magus - Generator - таба, видео

Регистрация Запомнить меня
Войти через:  Facebook Google Twitter Vk Yandex Mail.ru

Grand Magus - Generator - таба, видео

Печатать
Просмотров: 133
Band: Grand Magus
Song: Generator
Album: Grand Magus
Tuning: Drop D down a step



D|-----------------------------------| x2
A|--------h---------h----------------|
F|--7----5-7--7----5-7--7--5---------|
C|--5----5----5----5----5--5---------|
G|-----------------------------------|
C|-----------------------------------|


D|-------------------------------------| x8
A|-------------------------------------|
F|--h-7------------h-7----7--5---------|
C|--5--------------5------5--5---------|
G|-------------------------------------|
C|-------------------------------------|


D|-------------------------------------------| x2
A|-------------------------------------------|
F|--------------------3--2--3-2--------------|
C|--3--2--3-2----5----3--2--3-2----5---------|
G|--3--2--3-2----5----1--0--1-0----5---------|
C|--3--2--3-2----5-----------------5---------|


D|-------------------------------------| x8
A|-------------------------------------|
F|--h-7------------h-7----7--5---------|
C|--5--------------5------5--5---------|
G|-------------------------------------|
C|-------------------------------------|


D|-------------------------------------------|
A|-------------------------------------------|
F|--------------------3--2--3-2--------------|
C|--3--2--3-2----5----3--2--3-2----5---------|
G|--3--2--3-2----5----1--0--1-0----5---------|
C|--3--2--3-2----5-----------------5---------|


D|---------------------------------------------------------------| 
A|---------------------------------------------------------------|
F|--------------------3--2--3-2----------------------------------|
C|--3--2--3-2----5----3--2--3-2----7---7-7--7-7-7--7-7-7-7-------|
G|--3--2--3-2----5----1--0--1-0----5---5-5--5-5-5--5-5-5-5-------|
C|--3--2--3-2----5-----------------0---0-0--0-0-0--0-0-0-0-------|



D|-------------------------------------------------------------|
A|-------------------------------------------------------------|
F|--------------------3--3----5-5------------------h-----------|
C|--5--5--5-5----3----3--3----5-5--5-----h----h---3-5~---------|
G|--5--5--5-5----3----1--1----3-3--5----3-5--3-5---------------|
C|--5--5--5-5----3-----------------5---------------------------|


D|--------------------------------------|
A|--------------------------------------|
F|--------------------3--3----5-5-------|
C|--5--5--5-5----3----3--3----5-5--5----|
G|--5--5--5-5----3----1--1----3-3--5----|
C|--5--5--5-5----3-----------------5----|


D|---------------------------------------------------------------------------------| 
A|---------------------------------------------------------------------------------|
F|-------------------------------------------------5-5--5--5-5----5-5--5--5-5------|
C|-------------------------------------------------5-5--5--5-5----5-5--5--5-5------|
G|-------------------------------------------------3-3--3--3-3----3-3--3--3-3------|
C|--0--0--3--0--3--0--3--0----0--3--0--3--0--3--0----------------------------------|


D|---------------------------------------------------------------------------------| 
A|---------------------------------------------------------------------------------|
F|-------------------------------------------------3-3--3--3-3----5-5--5--5-5------|
C|-------------------------------------------------3-3--3--3-3----5-5--5--5-5------|
G|-------------------------------------------------1-1--1--1-1----3-3--3--3-3------|
C|--0--0--3--0--3--0--3--0----0--3--0--3--0--3--0----------------------------------|


D|-------------------------------------------|
A|-------------------------------------------|
F|--7--7-7--7--7-7-7--7--7-7--7--7-7-7-------|
C|--7--7-7--7--7-7-7--7--7-7--7--7-7-7-------|
G|--5--5-5--5--5-5-5--5--5-5--5--5-5-5-------|
C|-------------------------------------------|


D|-------------------------------------------------------------| 
A|-------------------------------------------------------------|   
F|--------------------3--3----5-5------------------h-----------|    
C|--5--5--5-5----3----3--3----5-5--5-----h----h---3-5~---------| 
G|--5--5--5-5----3----1--1----3-3--5----3-5--3-5---------------|
C|--5--5--5-5----3-----------------5---------------------------|


D|--------------------------------------|
A|--------------------------------------|
F|--------------------3--3----5-5-------|
C|--5--5--5-5----3----3--3----5-5--5----|
G|--5--5--5-5----3----1--1----3-3--5----|
C|--5--5--5-5----3-----------------5----|


D|-------------------------------------------------------------|
A|-------------------------------------------------------------|
F|--------------------3--3----5-5------------------h-----------|
C|--5--5--5-5----3----3--3----5-5--5-----h----h---3-5~---------|
G|--5--5--5-5----3----1--1----3-3--5----3-5--3-5---------------|
C|--5--5--5-5----3-----------------5---------------------------|


D|-----------------------------------------|
A|-----------------------------------------|
F|--------------------3--3----5-5----------|
C|--5--5--5-5----3----3--3----5-5--5---/5~-|
G|--5--5--5-5----3----1--1----3-3--5-------|
C|--5--5--5-5----3-----------------5-------|


D|-------------------------------------------------------------------------------------|  
A|-------------------------------------------------------------------------------------|
F|-------------------5----------------------5---------------------5--5--5----9----12---|
C|--5--5--------5-5--5----5--5--------5--5--5----5--5--------5-5--5--5--5----9----12---|
G|--5--5---p-5--5-5--3----5--5---p-5--5--5--3----5--5---p-5--5-5--3--3--3----7----10---|
C|--5--5--8--5--5-5-------5--5--8--5--5--5-------5--5--8--5--5-5-----------------------| 
 
x2


Key:

/ = Slide
~ = Virbrato
p = Pull off
H = Hammer on
Добавлено: 22.04.2012
Другие материалы по этой песне:
  • Аккорды и текст

Страница создана 22.04.2012
http://primanota.ru/grand-magus/generator-chords.htm
Привет, Гость.
Предлагаем пройти революционный курс по гитаре.
Подарок от PrimaNota.Ru, забирай!