PrimaNota.ru - самый крупный в мире бесплатный архив песенных текстов, аккордов, табулатур и нот


Grand Magus - Gauntlet - таба, видео

Регистрация Запомнить меня
Войти через:  Facebook Google Twitter Vk Yandex Mail.ru

Grand Magus - Gauntlet - таба, видео

Печатать
Просмотров: 121
Grand Magus - Gauntlet
Album: Grand Magus
Tuning: Drop D down a step
http://www.grandmagus.com


D|---------------------------------------------------------|
A|---------------------------------------------------------|
F|---------------------------------------------------------|
C|--------------3--3~~-----------------3--3~~-----5--7-----|
G|-----5--3--5----------------5--3--5-------------3--5-----|
C|--0----------------------0-------------------0--5--7-----|

D|-------------------------------------------------------------|   x4
A|-------------------------------------------------------------|
F|-------------------------------------------------------------|
C|--------------3--3~~----------------3--3~~------3--3--3------|
G|-----5--3--5--------------5--3--5---------------3--3--3------|
C|--0--------------------0---------------------0--3--3--3------|


D|----------------------------------------------------------------|  x2
A|----------------------------------------------------------------|
F|--7----5--5--5---5--7------10--10--10---------------------------|
C|--7----5--5--5---5--7------10--10--10---------------------------|
G|--5----3--3--3---3--5------8---8---8----------------------------|
C|----------------------------------------------------------------|


D|----------------------------------------------------------------|  x4
A|----------------------------------------------------------------|
F|----------------------------------------------------------------|
C|----------------------------------------------------------------|
G|-----5-----5------2b-----2b-------5-----5------8------5---------|
C|--0-----0------0------0--------0-----0------0------0------------|


D|----------------------------------------------------------------|
A|----------------------------------------------------------------|
F|----------------------------------------------------------------|
C|--5----5--5--5----------------------------------5-----5---------|
G|--3----3--3--2--------5-----5-----8-----5~~-----3-----2---------|
C|-------------------0-----0-----0-----0--------------------------|


D|---------------------------------------------------------|
A|---------------------------------------------------------|
F|---------------------------------------------------------|
C|--------------3--3~~-----------------3--3~~-----5--7-----|
G|-----5--3--5----------------5--3--5-------------3--5-----|
C|--0----------------------0-------------------0--5--7-----|


D|-------------------------------------------------------------| x2  
A|-------------------------------------------------------------|
F|-------------------------------------------------------------|
C|--------------3--3~~----------------3--3~~------3--3--3------|
G|-----5--3--5--------------5--3--5---------------3--3--3------|
C|--0--------------------0---------------------0--3--3--3------|


D|----------------------------------------------------------------|  x4
A|----------------------------------------------------------------|
F|----------------------------------------------------------------|
C|----------------------------------------------------------------|
G|-----5-----5------2b-----2b-------5-----5------8------5---------|
C|--0-----0------0------0--------0-----0------0------0------------|



D|----------------------------------------------------------------|
A|----------------------------------------------------------------|
F|----------------------------------------------------------------|
C|--5----5--5--5----------------------------------5-----5---------|
G|--3----3--3--2--------5-----5-----8-----5~~-----3-----2---------|
C|-------------------0-----0-----0-----0--------------------------|


D|----------------------------------------------------------------|
A|----------------------------------------------------------------|
F|----------------------------------------------------------------|
C|--5----5--5--5----------------------------------5-----5----3----|
G|--3----3--3--2--------5-----5-----8-----5~~-----3-----2----1----|
C|-------------------0-----0-----0-----0--------------------------|


D|----------------------------------------------------------------------------------------|
A|----------------------------------------------------------------------------------------|
F|----------------------------------------------------------------------------------------|
C|--0----0--0-----------------0----0--0---2--3----0----0--0---2--3--3--3--0----0--0--2--3-|
G|--0----0--0---3--5---5--5---0----0--0---2--3----0----0--0---3--5--5--5--0----0--0--2--3-|
C|--0----0--0-----------------0----0--0---2--3----0----0--0---------------0----0--0--2--3-|


D|----------------------------------------------------------------------------------------|
A|----------------------------------------------------------------------------------------|
F|----------------------------------------------------------------------------------------|
C|--0----0--0---5--7---7--7---0----0--0---2--3----0----0--0---5--7--7--7--0----0--0--2--3-|
G|--0----0--0---3--5---5--5---0----0--0---2--3----0----0--0---3--5--5--5--0----0--0--2--3-|
C|--0----0--0-----------------0----0--0---2--3----0----0--0---------------0----0--0--2--3-|


D|---------------------------------------------------------|
A|---------------------------------------------------------|
F|---------------------------------------------------------|
C|--------------3--3~~-----------------3--3~~-----5--7-----|
G|-----5--3--5----------------5--3--5-------------3--5-----|
C|--0----------------------0-------------------0--5--7-----|

D|-------------------------------------------------------------|   x2
A|-------------------------------------------------------------|
F|-------------------------------------------------------------|
C|--------------3--3~~----------------3--3~~------3--3--3------|
G|-----5--3--5--------------5--3--5---------------3--3--3------|
C|--0--------------------0---------------------0--3--3--3------|


D|----------------------------------------------------------------|  x2
A|----------------------------------------------------------------|
F|----------------------------------------------------------------|
C|----------------------------------------------------------------|
G|-----5-----5------2b-----2b-------5-----5------8------5---------|
C|--0-----0------0------0--------0-----0------0------0------------|



D|-------------------------------------------------------------------------------------|
A|-------------------------------------------------------------------------------------|
F|-------------------------------------------------------------------------------------|
C|--5----5--5--5----------------------------------5-----5----3-----3--3---5------------|
G|--3----3--3--2--------5-----5-----8-----5~~-----3-----2----1-----1--1---3------------|
C|-------------------0-----0-----0-----0-----------------------------------------------|


D|----------------------------------------------------------------|  x2
A|----------------------------------------------------------------|
F|----------------------------------------------------------------|
C|----------------------------------------------------------------|
G|-----5-----5------2b-----2b-------5-----5------8------5---------|
C|--0-----0------0------0--------0-----0------0------0------------|


D|--------------------------------------------------------------------------|
A|--------------------------------------------------------------------------|
F|--------------------------------------------------------------------------|
C|--5----5--5--5----------------------------------5-----5----3----3---0-----|
G|--3----3--3--2--------5-----5-----8-----5~~-----3-----2----1----3---0-----|
C|-------------------0-----0-----0-----0--------------------------3---0-----|



-End-


Добавлено: 13.07.2012
Другие материалы по этой песне:
  • Аккорды и текст

Страница создана 13.07.2012
http://primanota.ru/grand-magus/gauntlet-chords.htm
Привет, Гость.
Предлагаем пройти революционный курс по гитаре.
Подарок от PrimaNota.Ru, забирай!