PrimaNota.ru - самый крупный в мире бесплатный архив песенных текстов, аккордов, табулатур и нот


Grand Magus - Coat Of Arms - таба, видео

Регистрация Запомнить меня
Войти через:  Facebook Google Twitter Vk Yandex Mail.ru

Grand Magus - Coat Of Arms - таба, видео

Печатать
Просмотров: 134
Band: Grand Magus
Song: Coat of Arms
Album: Grand Magus
Tuning: Drop D down a step
http://www.grandmagus.com


D|-----------------------------------------------------------------------------| x2
A|-----------------------------------------------------------------------------|
F|-----------------------------------------------------------------------------|
C|-----------------------------------------------------------------------3~~---|
G|----------5~--------h---3~---p----h---------------5~------h---5~---h---------|
C|--0--0-0--------0--3-5------5-3--3-5~---0--0-0--------0--3-5------3-5--------|


D|---------------------------------------------------------------------| x2
A|---------------------------------------------------------------------|
F|---------------------------------------------------------------------|
C|--0-------------------0----------10--10---5--5-5----5--5-5--5-5------|
G|--0-------------------0----------8---8----5--5-5----5--2-2--3-3------|
C|--0--0--0-0-0--0-0-0--0--0--0-0-----------5--5-5----5----------------|


D|------------------------------------------| x2
A|------------------------------------------|
F|------------------------------------------|
C|------------------------------------------|
G|----------------------------0--3--4-------|
C|--0--0-0--3~--0-0--5~--0-0----------------|


D|---------------------------------------------------------------------| x2
A|---------------------------------------------------------------------|
F|---------------------------------------------------------------------|
C|--0-------------------0----------10--10---5--5-5----5--5-5--5-5------|
G|--0-------------------0----------8---8----5--5-5----5--2-2--3-3------|
C|--0--0--0-0-0--0-0-0--0--0--0-0-----------5--5-5----5----------------|


D|-----------------------------------------------------------| x4
A|-----------------------------------------------------------|
F|--5--------------------------------------------------------|
C|--5--------5--------0--------------------------------------|
G|--3--------5--------0----------/5------/5-------/5---------|
C|-----------5--------0-----0-0------0-0-----0-0-------------|


D|-----------------------------------------------------------------------------| x2
A|-----------------------------------------------------------------------------|
F|-----------------------------------------------------------------------------|
C|-----------------------------------------------------------------------3~~---|
G|----------5~--------h---3~---p----h---------------5~------h---5~---h---------|
C|--0--0-0--------0--3-5------5-3--3-5~---0--0-0--------0--3-5------3-5--------|


D|---------------------------------------------------------------------| x2
A|---------------------------------------------------------------------|
F|---------------------------------------------------------------------|
C|--0-------------------0----------10--10---5--5-5----5--5-5--5-5------|
G|--0-------------------0----------8---8----5--5-5----5--2-2--3-3------|
C|--0--0--0-0-0--0-0-0--0--0--0-0-----------5--5-5----5----------------|



D|-----------------------------------------------------------| x4
A|-----------------------------------------------------------|
F|--5--------------------------------------------------------|
C|--5--------5--------0--------------------------------------|
G|--3--------5--------0----------/5------/5-------/5---------|
C|-----------5--------0-----0-0------0-0-----0-0-------------|



D|------------------------------------------------| x2
A|------------------------------------------------|
F|------------------------------------------------|
C|--7--7----7--7--3--5--5----5--5-5--5--5---------|
G|--5--5----5--5--3--5--5----2--2-2--3--3---------|
C|--0--0----0--0--3--5--5-------------------------|



D|--------------------------------------------------------------------------------| x2
A|--------------------------------------------------------------------------------|
F|--------------------------------------------------------------------------------|
C|--2--2-2-2--2-2-2--2--2-2-2--2-2-2----12--12-----7--7----7-7----7-7--7----------|
G|--2--2-2-2--2-2-2--2--2-2-2--2-2-2----10--10-----7--7----7-7----4-4--5----------|
C|--2--2-2-2--2-2-2--2--2-2-2--2-2-2---------------7--7----7-7--------------------|




D|------------------------------------------------------| x4
A|------------------------------------------------------|
F|--7---------------------------------------------------|
C|--7--------7--------2--2-2--2--2-2--2--2-2--2---------|
G|--5--------7--------2--2-2--2--2-2--2--2-2--2---------|
C|-----------7--------2--2-2--2--2-2--2--2-2--2---------|



D|------------------------------------------------------------------------| x2
A|------------------------------------------------------------------------|
F|------------------------------------------------------------------------|
C|-----------------------------------------------------------------5~-----|
G|----------/7~---h---5~---p--------------------/7~---h---5~---h----------|
C|--2--2-2-------5-7------7-5--5--7~----2--2-2-------5-7------5-7---------|



D|-----------------|
A|-----------------|
F|-----------------|
C|--2----2---------|
G|--2----2---------|
C|--2----2---------|





{---------Key---------}

/ = Slide Up
\ = Slide Down
h = Hammer on
p = Pull off
~ = Virbrato 
Добавлено: 31.05.2012
Другие материалы по этой песне:
  • Аккорды и текст

Страница создана 31.05.2012
http://primanota.ru/grand-magus/coat-of-arms-chords.htm
Привет, Гость.
Предлагаем пройти революционный курс по гитаре.
Подарок от PrimaNota.Ru, забирай!