PrimaNota.ru - самый крупный в мире бесплатный архив песенных текстов, аккордов, табулатур и нот


Grand Magus - Blood Oath - таба, видео

Регистрация Запомнить меня
Войти через:  Facebook Google Twitter Vk Yandex Mail.ru

Grand Magus - Blood Oath - таба, видео

Печатать
Просмотров: 98
Artist: Grand Magus
Song: Blood Oath
Album: Wolf's Return
Tuning: Drop D down a Step
http://www.grandmagus.com/

D|-----------------------------------------------------------------------|  \
A|-----------------------------------------------------------------------|   \
F|-----------------------------------------------------------------------|    \
C|-------------------------------------------------------------h---------|     |
G|-----3--5-------------8--7-------------0-----1-----0-----1--0-1--------|     |
C|--0--------0-0-0-0-0--------0-0-0-0-0-----0-----0---------------5~-----|     |
 									       | x2
									       |
D|---------------------------------------------------------------|             |
A|---------------------------------------------------------------|            /
F|------------------------------------2-----2--------------------|           /
C|------------------------------------2-----3-----5-----7--------|          /
G|--3--5-------------8--7-------------0-----1-----3-----8--------|
C|--------0-0-0-0-0--------0-0-0-0-0-----0-----0-----0-----------|


D|----------------------------------------------------------------------------------| 
A|----------------------------------------------------------------------------------|
F|----------------------------------------------------------------------------------|
C|----------------------------------------------------------------------------------|
G|--3--5-------------------------------------------------------------5-3-0-3-5------|
C|--------0-0-0-0--0-0-0-0--0-0-0-0--0-0-0-0--0-0-0-0--0-0-0-0--0-0-----------------|


D|---------------------------------------------------------------------------| 
A|---------------------------------------------------------------------------|
F|---------------------------------------------------------------------------|
C|---------------------------------------------------------------------------|
G|---------------------------------------------------------------5-3-0-------|
C|----0-0-0-0--0-0-0-0--0-0-0-0--0-0-0-0--0-0-0-0--0-0-0-0--0-0--------------|



D|---------------------------------------------------------------------------|
A|---------------------------------------------------------------------------|
F|--2-2----------------------------------------------------------------------|
C|--2-2-----------------------------2-2-2-------------2-2-----------2-0-0----|
G|--0-0--0-0-0-0--0-0-0-0--0-0-0-0--0-4-4--4-4-4-4--4-0-0--0-0-0-0--0-0-0----|
C|--------------------------------------------------------------------0-0----|


D|--------------------------------------------------------------------------|
A|--------------------------------------------------------------------------|
F|--------------------------------------------------------------------------|
C|---------------------------------------------------------------------7~---|
G|---------------------------------------------------------7-8-7-5-7-8------|
C|--0-0-0-0--0-0-0-0--0-0-0-0--0-0-0-0--0-0-0-0--0-0-0-0--------------------|


D|----------------------------------------------------------------------------------| 
A|----------------------------------------------------------------------------------|
F|----------------------------------------------------------------------------------|
C|----------------------------------------------------------------------------------|
G|--3--5-------------------------------------------------------------5-3-0-3-5------|
C|--------0-0-0-0--0-0-0-0--0-0-0-0--0-0-0-0--0-0-0-0--0-0-0-0--0-0-----------------|


D|---------------------------------------------------------------------------| 
A|---------------------------------------------------------------------------|
F|---------------------------------------------------------------------------|
C|---------------------------------------------------------------------------|
G|---------------------------------------------------------------5-3-0-------|
C|----0-0-0-0--0-0-0-0--0-0-0-0--0-0-0-0--0-0-0-0--0-0-0-0--0-0--------------|


D|---------------------------------------------------------------------------|
A|---------------------------------------------------------------------------|
F|--2-2----------------------------------------------------------------------|
C|--2-2-----------------------------2-2-2-------------2-2-----------2-0-0----|
G|--0-0--0-0-0-0--0-0-0-0--0-0-0-0--0-4-4--4-4-4-4--4-0-0--0-0-0-0--0-0-0----|
C|--------------------------------------------------------------------0-0----|


D|---------------------------------------------------------------------------|
A|---------------------------------------------------------------------------|
F|---------------------------------------------------------------------------|
C|---------------------------------------------------------------------------|
G|---------------------------------------------------------------------------|
C|--0-0-0-0--0-0-0-0--0-0-0-0--0-0-0-0--0-0-0-0--0-0-0-0--0-0-0-0------------|


D|---------------------------------------------------------------------|
A|---------------------------------------------------------------------|
F|-------------6--6-------------------------6--6-----------------------|
C|--3--3--x-x--3--3--x-x--3--3---/--3--x-x--3--3--x-x--3--3--/---------|
G|--3--3--x-x--4--4--x-x--3--3---/--3--x-x--4--4--x-x--3--3--/---------|
C|--3--3--x-x--3--3--x-x--3--3---/--3--x-x--3--3--x-x--3--3--/---------|


D|------------------------------------------------------------|
A|------------------------------------------------------------|
F|-------------------------------------6----------------------|
C|--1---1--1--1--1--1--1--1----3--x-x--3--x-x--3--------------|
G|--1---1--1--1--1--1--1--1----3--x-x--4--x-x--3--------------|
C|--1---1--1--1--1--1--1--1----3--x-x--3--x-x--3----3*~-------|


D|-----------------------------------------------------------------------|  \
A|-----------------------------------------------------------------------|   \
F|-----------------------------------------------------------------------|    \
C|-------------------------------------------------------------h---------|     |
G|-----3--5-------------8--7-------------0-----1-----0-----1--0-1--------|     |
C|--0--------0-0-0-0-0--------0-0-0-0-0-----0-----0---------------5~-----|     |
 									       | x2
									       |
D|---------------------------------------------------------------|             |
A|---------------------------------------------------------------|            /
F|------------------------------------2-----2--------------------|           /
C|------------------------------------2-----3-----5-----7--------|          /
G|--3--5-------------8--7-------------0-----1-----3-----8--------|
C|--------0-0-0-0-0--------0-0-0-0-0-----0-----0-----0-----------|


D|----------------------------------------------------------------------------------| 
A|----------------------------------------------------------------------------------|
F|----------------------------------------------------------------------------------|
C|----------------------------------------------------------------------------------|
G|--3--5-------------------------------------------------------------5-3-0-3-5------|
C|--------0-0-0-0--0-0-0-0--0-0-0-0--0-0-0-0--0-0-0-0--0-0-0-0--0-0-----------------|


D|---------------------------------------------------------------------------| 
A|---------------------------------------------------------------------------|
F|---------------------------------------------------------------------------|
C|---------------------------------------------------------------------------|
G|---------------------------------------------------------------5-3-0-------|
C|----0-0-0-0--0-0-0-0--0-0-0-0--0-0-0-0--0-0-0-0--0-0-0-0--0-0--------------|



D|---------------------------------------------------------------------------|
A|---------------------------------------------------------------------------|
F|--2-2----------------------------------------------------------------------|
C|--2-2-----------------------------2-2-2-------------2-2-----------2-0-0----|
G|--0-0--0-0-0-0--0-0-0-0--0-0-0-0--0-4-4--4-4-4-4--4-0-0--0-0-0-0--0-0-0----|
C|--------------------------------------------------------------------0-0----|


D|--------------------------------------------------------------------------|
A|--------------------------------------------------------------------------|
F|--------------------------------------------------------------------------|
C|---------------------------------------------------------------------7~---|
G|---------------------------------------------------------7-8-7-5-7-8------|
C|--0-0-0-0--0-0-0-0--0-0-0-0--0-0-0-0--0-0-0-0--0-0-0-0--------------------|


D|----------------------------------------------------------------------------------| 
A|----------------------------------------------------------------------------------|
F|----------------------------------------------------------------------------------|
C|----------------------------------------------------------------------------------|
G|--3--5-------------------------------------------------------------5-3-0-3-5------|
C|--------0-0-0-0--0-0-0-0--0-0-0-0--0-0-0-0--0-0-0-0--0-0-0-0--0-0-----------------|


D|---------------------------------------------------------------------------| 
A|---------------------------------------------------------------------------|
F|---------------------------------------------------------------------------|
C|---------------------------------------------------------------------------|
G|---------------------------------------------------------------5-3-0-------|
C|----0-0-0-0--0-0-0-0--0-0-0-0--0-0-0-0--0-0-0-0--0-0-0-0--0-0--------------|


D|-----------------------------------------------------------------------------|
A|-----------------------------------------------------------------------------|
F|-----------------------------------------------------------------------------|
C|--2-2-----------------------------2--------------------------------h-p-------|
G|--4-4--4-4-4-4--4-4-4-4--4-4-4-4--4-7-7--7-7-7-7--7-8-8--8-8-8-8--7-8-7--5~--|
C|-----------------------------------------------------------------------------|



D|---------------------------------------------------------------------|
A|---------------------------------------------------------------------|
F|-------------6--6-------------------------6--6-----------------------|
C|--3--3--x-x--3--3--x-x--3--3---/--3--x-x--3--3--x-x--3--3--/---------|
G|--3--3--x-x--4--4--x-x--3--3---/--3--x-x--4--4--x-x--3--3--/---------|
C|--3--3--x-x--3--3--x-x--3--3---/--3--x-x--3--3--x-x--3--3--/---------|


D|------------------------------------------------------------|
A|------------------------------------------------------------|
F|-------------------------------------6----------------------|
C|--1---1--1--1--1--1--1--1----3--x-x--3--x-x--3--------------|
G|--1---1--1--1--1--1--1--1----3--x-x--4--x-x--3--------------|
C|--1---1--1--1--1--1--1--1----3--x-x--3--x-x--3----3*~-------|


D|-----------------------------------------------------------------------|  \
A|-----------------------------------------------------------------------|   \
F|-----------------------------------------------------------------------|    \
C|-------------------------------------------------------------h---------|     |
G|-----3--5-------------8--7-------------0-----1-----0-----1--0-1--------|     |
C|--0--------0-0-0-0-0--------0-0-0-0-0-----0-----0---------------5~-----|     |
 									       | x2
									       |
D|---------------------------------------------------------------|             |
A|---------------------------------------------------------------|            /
F|------------------------------------2-----2--------------------|           /
C|------------------------------------2-----3-----5-----7--------|          /
G|--3--5-------------8--7-------------0-----1-----3-----8--------|
C|--------0-0-0-0-0--------0-0-0-0-0-----0-----0-----0-----------|



D|-------------------------------------------------------------------------------------------------------------|
A|-------------------------------------------------------------------------------------------------------------|
F|-------------------------------------------------------------------------------------------------------------|
C|--0-0--------------------------------2-2--------------------------------3-3----------------------------------|
G|--0-0--------------------------------2-2--------------------------------3-3----------------------------------|
C|--0-0--0-0-0-0--0-0-0-0--0-0--0-0-0--2-2--2-2-2-2--2-2-2-2--2-2--2-2-2--3-3--3-3-3-3--3-3-3-3--3-3--3-3-3----|


D|---------------------------------------|
A|---------------------------------------|
F|---------------------------------------|
C|--3-3--3-3-3-3--3-2-2--2-2-2-2--2------|
G|--1-1--1-1-1-1--1-0-0--0-0-0-0--0------|
C|---------------------------------------|


D|-------------------------------------------------------------------------------------------------------------|
A|-------------------------------------------------------------------------------------------------------------|
F|-------------------------------------------------------------------------------------------------------------|
C|--0-0--------------------------------2-2--------------------------------3-3----------------------------------|
G|--0-0--------------------------------2-2--------------------------------3-3----------------------------------|
C|--0-0--0-0-0-0--0-0-0-0--0-0--0-0-0--2-2--2-2-2-2--2-2-2-2--2-2--2-2-2--3-3--3-3-3-3--3-3-3-3--3-3--3-3-3----|


D|----------------------------------------------------------------------|
A|----------------------------------------------------------------------|
F|----------------------------------------------------------------------|
C|--5-5--5-5-5-5--5-3-3--3-3-3-3--3-2-2--2-2-2-2--2-2--2--2-2-2-2-------|
G|--3-3--3-3-3-3--3-1-1--1-1-1-1--1-0-0--0-0-0-0--0-0--0--0-0-0-0-------|
C|----------------------------------------------------------------------|


D|-----------------------------------------------------------------------|  \
A|-----------------------------------------------------------------------|   \
F|-----------------------------------------------------------------------|    \
C|-------------------------------------------------------------h---------|     |
G|-----3--5-------------8--7-------------0-----1-----0-----1--0-1--------|     |
C|--0--------0-0-0-0-0--------0-0-0-0-0-----0-----0---------------5~-----|     |
 									       | x2
									       |
D|---------------------------------------------------------------|             |
A|---------------------------------------------------------------|            /
F|------------------------------------2-----2--------------------|           /
C|------------------------------------2-----3-----5-----7--------|          /
G|--3--5-------------8--7-------------0-----1-----3-----8--------|
C|--------0-0-0-0-0--------0-0-0-0-0-----0-----0-----0-----------|


D|--5--5----4--4----5--5----4--4--------| x4
A|--6--6----5--5----6--6----5--5--------|
F|--7--7----6--6----7--7----6--6--------|
C|--7--7----6--6----7--7----6--6--------|
G|--5--5----4--4----5--5----4--4--------|
C|--------------------------------------|


D|------------------------------------------| x2
A|------------------------------------------|
F|------------------------------------------|
C|------------------------------------------|
G|--5--5-------5--4~---5--5-------5--4~-----|
C|--0--0--0-0----------0--0--0-0------------|

D|------------------------------------------| 
A|------------------------------------------|
F|------------------------------------------|
C|----------------------0--0----0--0--------|
G|--5--5-------5--4~----0--0----0--0--------|
C|--0--0--0-0-----------0--0----0--0--------|


Key:
h = Hammer on
p = pull off
~ = Virbrato
x = Muted String
/ = slide
* = pinch harmonic
Добавлено: 25.02.2012
Другие материалы по этой песне:
  • Аккорды и текст

Страница создана 25.02.2012
http://primanota.ru/grand-magus/blood-oath-chords.htm
Привет, Гость.
Предлагаем пройти революционный курс по гитаре.
Подарок от PrimaNota.Ru, забирай!