PrimaNota.ru - самый крупный в мире бесплатный архив песенных текстов, аккордов, табулатур и нот


Grand Funk Railroad - Country Road - текст песни, бас-таба, видео

Регистрация Запомнить меня
Войти через:  Facebook Google Twitter Vk Yandex Mail.ru

Grand Funk Railroad - Country Road - текст песни, бас-таба, видео

Печатать
Просмотров: 237
Уроки эстрадного вокала в Санкт-Петербурге
Intro
G|-----------------------------------------------------|
D|-----------------------------------------------------|
A|-----------------------------------------------------|
E|1/444444444-2-1-2-3-44444444-2211223-44444444-2211223|

	Main Verse [Play 5 times]
G|-------------------------------------------|
D|5-7----------------5-7-----------5h7-------|
A|--------------3-5-------------------7h5----|
E|----4-4-4-4-4----------4-4-4-4-4--------764|
	
	Chorus 		 [¯Play 4 times¯]
G|-------------------||----------------|
D|-------------------||----------------|
A|-------------------||----------------|
E|1/444444444-2211223||44444444-2211223|

	Main Verse [Play 5 times]
G|-------------------------------------------|
D|5-7----------------5-7-----------5h7-------|
A|--------------3-5-------------------7h5----|
E|----4-4-4-4-4----------4-4-4-4-4--------764|

        Chorus 	[¯Play 4 times¯]
G|-------------------||----------------|
D|-------------------||----------------|
A|-------------------||----------------|
E|1/444444444-2211223||44444444-2211223|

{This isn't hard, listen to the 
song and you should hear how it goes}
     Guitar Solo     [Play 3 times]
G|------------------||---------------||---------------|
D|------------------||---------------||------------556|
A|-----------55-----||--------55-----||--------5577---|
E|1/444444444--11223||44444444--11223||44444444-------|

	[Play 4 times]	     	   [Play 2 times]
G|--------------------------------||---------------------------|
D|5h77-5h77-5h77-5h77-755544455566||77-777-7-7-777-755544455566|
A|--------------------------------||---------------------------|
E|--------------------------------||---------------------------|

G|----------------------------||-------------------------------|
D|77-7-7-7-77-7-7-755544455566||777-7-7-7-777-7-7-7755544455566|
A|----------------------------||-------------------------------|
E|----------------------------||-------------------------------|

G|--------------------------------||--------------------------|
D|5h777-5h777-5h777-5h777-75544556||7-7--------------4-4-5-5-6|
A|--------------------------------||--4-4-5-5-6-6-7-7---------|
E|--------------------------------||--------------------------|

G|-------------------------------------------------------------|
D|1/77777771/7777771/7777777777777-5-7---------------5h7------7|
A|-----------------------------------------------3-5----7h5----|
E|-------------------------------------4-4-4-4-4-----------764-|
Добавлено: 06.07.2012
Другие материалы по этой песне:
  • Аккорды и текст

Страница создана 31.03.2012
http://primanota.ru/grand-funk-railroad/country-road-chords.htm
Привет, Гость.
Предлагаем пройти революционный курс по гитаре.
Подарок от PrimaNota.Ru, забирай!