PrimaNota.ru - самый крупный в мире бесплатный архив песенных текстов, аккордов, табулатур и нот


Grand Design - Rawk N Roll Heart Attack - таба, видео

Регистрация Запомнить меня
Войти через:  Facebook Google Twitter Vk Yandex Mail.ru

Grand Design - Rawk N Roll Heart Attack - таба, видео

Печатать
Просмотров: 199
Rawk N Roll Heart Attack - Grand Design
Tuning Full Step Down - D G C F A d
Tabbed by Derek Schmidt

Check out my page for video cover - http://www.hammerheadrocks.com/#!dereks-page/c11nt 

Tab Key:
h - hammer on
p - pull off
b - bend
r - release
v - vibrato
= - hold note
PH - pinch harmonic
\ - slide down neck
/ - slide up neck
PM - palm mute
W - whammy 
x - muted note
NH - natural harmonic

Intro: Guitar 1
e---------------------------------------|
B---------------------------------------|
G-----------------2----2--2----5--5--7--|
D--2--2---x-5--5--2----2--2----5--5--7--|
A--2--2---x-5--5--0----0--0----3--3--5--|
E--0--0---x-3--3------------------------| X3

Guitar 2
e--------------------------------12h15p12----12-15b17----------|
B----------12h15p12----12-15b17-----------15------------15b17--|
G--14b16------------14-----------------------------------------|
D--------------------------------------------------------------|
A--------------------------------------------------------------|
E--------------------------------------------------------------|

e---------12----------------------------------------------------------------------|
B--15b17-----15p12-15p12----12--------------------12------------------------------|
G------------------------14----14p12-14p12--------12------------------------------|
D------------------------------------------14--14-----14-14p12----12--------------|
A--------------------------------------------------------------14----14p12\10-----|
E-----------------------------------------------------------------------------12--|

e----------|
B----------|
G------16--|
D--/14-14--|
A----------|
E----------|


Post Intro: Guitar 1
e---------------------------((5)NH)--|  |------|
B------------------------------------|  |------|
G------------------------------------|  |------|
D--2=--------------------------------|  |--2=--|
A--2=--------------------------------|  |--2=--|
E--0=--------------------------------|  |--0=--|

Guitar 2
e-------------------------|    |------------| |--------------|
B-------------------------|    |------------| |-----7--------|
G--7h9--7h9--7h9--7h9-7v--|    |-7h9-7h9-7--| |--/9---9p7\5--|
D-------------------------|    |------------| |--------------|
A-------------------------|    |------------| |--------------|
E-------------------------| X3 |------------| |--------------| X2

Verse: Both Guitars
e--------------------------------------------------------------------|
B--------------------------------------------------------------------|
G-----------------------------------------------------------7--------|
D--2---x-5--x-7--x-7-------------------------------------/9---9p7\5--|
A--2---x-5--x-7--x-7---5h7--5h7--5h7--5h7-5----5h7-5h7-5-------------|
E--0---x-3--x-5--x-5-------------------------------------------------|

e---------------------------------------------------------------------|
B---------------------------------------------------------------------|
G---------------------------------------------------------------------|
D--2--x-5--x-7--x-7---------------------------------------------------|
A--2--x-5--x-7--x-7---5h7--5h7--5h7--5h7-5----5h7-5h7-5------5--------|
E--0--x-3--x-5--x-5---------------------------------------/7---7p5\3--|

Pre Chorus:
e-------------------|
B-------------------|
G-------5--5--7--7--|
D--5----5--5--7--7--|
A--5----3--3--5--5--|
E--3----------------|

Chorus: Both Guitars
e---------------------------------------|
B---------------------------------------|
G-----------------2----2--2----5--5--7--|
D--2--2---x-5--5--2----2--2----5--5--7--|
A--2--2---x-5--5--0----0--0----3--3--5--|
E--0--0---x-3--3------------------------| X2

e---------------------|
B---------------------|
G-----------------2=--|
D--2--2---x-5--5--2=--|
A--2--2---x-5--5--0=--|
E--0--0---x-3--3------|

Post Intro

Verse 2:
e---------------------------------------------------------------------------------|
B---------------------------------------------------------------------------------|
G------------------------------------------------------------------------7--------|
D--2---x-5--x-7-7-7p5h7-7-7-7p5h7-7-----------------------------------/9---9p7/5--|
A--2---x-5--x-7---------------------5h7--5h7--5h7--5h7-5----5h7-5h7-5-------------|
E--0---x-3--x-5-------------------------------------------------------------------|

e---------------------------------------------------------------------|
B---------------------------------------------------------------------|
G---------------------------------------------------------------------|
D--2--x-5--x-7--x-7---------------------------------------------------|
A--2--x-5--x-7--x-7---5h7--5h7--5h7--5h7-5----5h7-5h7-5------5--------|
E--0--x-3--x-5--x-5---------------------------------------/7---7p5\3--|

Pre Chorus

Chorus

Interlude:
e-----------------------------------------------------|
B----------------------14---------14----------14------|
G------14-16--------16--------/16----16----/16----14--|
D--/16----------/14-----------------------------------|
A-----------------------------------------------------|
E-----------------------------------------------------| X2

Solo:
e---------14-------14h17p14-----14-------17-19-19b21r19p17-----|
B--/14-17----17b19-----------17----17/19-------------------19--|
G--------------------------------------------------------------|
D--------------------------------------------------------------|
A--------------------------------------------------------------|
E--------------------------------------------------------------|

e-17h19p17--17h19p17----17------------|---------------------------------|
B---------19---------19-----19p17/14--|---------------------------------|
G-------------------------------------|--14-14-16-14----14-16----14-----|
D-------------------------------------|--------------16-------16----16--|
A-------------------------------------|---------------------------------|
E-------------------------------------|---------------------------------| 
                                      | I believe this part is slightly palm muted

e-------------------|     |--------------------------------------------------------------|
B--/12-10-----------|     |--14h17p14----14----------------------------------------------|
G----------11p9-11--|     |-----------16----16p14----14----------------------------------|
D-------------------|     |-----------------------16----16p14----14----------------------|
A-------------------|     |-----------------------------------16----16p14--12h14p12------|
E-------------------| X2  |----------------------------------------------------------14--|

e----------------|     |------14h17p14--|
B------14h17p14--|     |--17b-----------|
G--14b-----------|     |----------------|
D----------------|     |----------------|
A----------------|     |----------------|
E----------------| X3  |----------------| X3

Chorus X2
Добавлено: 22.11.2015
Другие материалы по этой песне:
  • Аккорды и текст

Страница создана 22.11.2015
http://primanota.ru/grand-design/rawk-n-roll-heart-attack-chords.htm
Привет, Гость.
Предлагаем пройти революционный курс по гитаре.
Подарок от PrimaNota.Ru, забирай!