PrimaNota.ru - самый крупный в мире бесплатный архив песенных текстов, аккордов, табулатур и нот


Grand Belials Key - The Seventh Enochian Key - текст песни, таба, видео

Регистрация Запомнить меня
Войти через:  Facebook Google Twitter Vk Yandex Mail.ru

Grand Belials Key - The Seventh Enochian Key - текст песни, таба, видео

Печатать
Просмотров: 109
Artist: Grand Belial's key
Title: The seventh enochian key
Album: Mocking the philanthropist
Tuning: D# A# F# C# G# D#
tr=trill

Riff1
|------------------------------------------|
|------------------------------------------|
|------------------------------------------|
|---------------------0---------0--2--4----|
|-2---------4----2---------4---------------|
|------3-----------------------------------|

Riff2
|--------------------------------------------------------------------------|
|--------------------------------------------------------------------------|
|--------------------------------------------------------------------------|
|-5----4--2--------4----2----0----5----4--5--7----5--7--9----4-------------|
|-----------------------------------------------------------------4--------|
|--------------------------------------------------------------------------|

|-------------------------------------------|
|-------------------------------------------|
|-------------------------------------------|
|-7----2---------9----4----0----------------|
|-----------2-----------------4--2--0--2----|
|-------------------------------------------|

Riff3
|-------------------------------------|
|-------------------------------------|
|-------------------------------------|
|-------------------------------------|
|-------------------------------------|
|-2--------3--------0--------2--------|

Riff4
|------------------------------------------------------------------------|
|------------------------------------------------------------------------|
|------------------------------------------------------------------------|
|------------0----------------------0----------------------0-------------|
|-2----2--4-----4--2--0--2----2--4-----4--2--0--2----2--4-----4--2--0--2-|
|------------------------------------------------------------------------|

|-------------------------------------------|
|-------------------------------------------|
|-------------------------------------------|
|------------0--------0----------0-----0----|
|-2----2--4-----4--2-----4----4-----4-----4-|
|-------------------------------------------|

Riff5
|-----------------------------------------------------------------------|
|-----------------------------------------------------------------------|
|-----------------------------------------------------------------------|
|-------------------------0--2--4----5--4--2--4-----5-4----7-5----5-4---|4tr(5)]
|-2------2--0--------4--------------------------------------------------|
|-----------------------------------------------------------------------|

And the song goes like this:
Riff1 4x
Riff2 1x
little break...
Riff3 3x
Riff4 8x
Riff5 1x
That's guitar 1, someone else can try sologuitar.
But that's the song, have fun :)
Corrections to Petteri92@gmail.com
Добавлено: 12.05.2012
Другие материалы по этой песне:
  • Аккорды и текст

Страница создана 12.05.2012
http://primanota.ru/grand-belials-key/the-seventh-enochian-key-chords.htm
Привет, Гость.
Предлагаем пройти революционный курс по гитаре.
Подарок от PrimaNota.Ru, забирай!