PrimaNota.ru - самый крупный в мире бесплатный архив песенных текстов, аккордов, табулатур и нот


Grand Archives - The Crime Window - аккорды и текст, видео

Регистрация Запомнить меня
Войти через:  Facebook Google Twitter Vk Yandex Mail.ru

Grand Archives - The Crime Window - аккорды и текст, видео

Печатать
Просмотров: 73
The Crime Window
Grand Archives
-----------------------------------------------------------------------------
                     THE CRIME WINDOW - Grand Archives
-----------------------------------------------------------------------------

Band: Grand Archives
Song: The Crime Window
Album: The Grand Archives (2008)

Tabbed by: Pascual Rambert (Chasco-Mousse, Argentina)
Tuning: Standard



(intro) __
E E E E   |
B B A A __|(x2)

E B


(only Bass)
E B E B
calm down everyone we've heard
the water supply's got a few dead birds
E A E B
two wooden nickels and a little time
you'll be walking to the altar with a mexican bride


E A E B (x2)
sweet jolly jammers and a dugan charge
burning down the prarie on a victory barge


F#m   G#m             A            B     B
for tonight leave the crime window closed


E E E E
B B A A

E E B B (x2)

A A E B


(only Bass)
E B E B
bag 'o bones cursing at the spit he spat
he was creep creep creepin' up the railroad track
E A E B
tell his missus that mister's fine
keep her fingers crossed and her split tongue tied


E A E B (x2)
sweet jolly jammers and a dugan charge
burning down the prarie on a victory barge


F#m   G#m             A            B
for tonight leave the crime window closed
F#m   G#m             A            B     B
for tonight leave the crime window closed


(without Bass)
E E B B   |
A A E B __|(x2)


(solo trumpet)
E E E E   |
B B A A __|(x2)


(end)
E 
B B B B
E


-----------------------------------------


CHORDS
E      079997
B      799877
A      577655
F#m    244222
G#m    466444


    INTRO TRUMPET
       E           B     A             E B   E
    e|-7-~-|(7)~-|-----|-----|       |-----|-----|
    B|-----|-----|-7-~-|-----|       |-----|-----|
    G|-----|-----|-----|-9-~-|(x2)   |-9-8-|-9-~-|
    D|-----|-----|-----|-----|       |-----|-----|
    A|-----|-----|-----|-----|       |-----|-----|
    E|-----|-----|-----|-----|       |-----|-----|


    SOLO TRUMPET
       E           B                  A
    e|-----|-----|------------------|------------------|
    B|-----|-----|-------10-9-------|-------10-9-------|
    G|-9-~-|-9-~-|-11-~-------11-9--|------------11-9--|
    D|-----|-----|------------------|-11-~-------------|
    A|-----|-----|------------------|------------------|
    E|-----|-----|------------------|------------------|
       E           B                  A                  E  
    e|-----|-----|------------------|------------------|-----|
    B|-----|-----|-------10-9-------|-------10-9-------|-----|
    G|-----|-9-~-|-8-~--------11-9--|------------11-9--|-----|
    D|-9-~-|-----|------------------|-11-~-------------|-9-~-|
    A|-----|-----|------------------|------------------|-----|
    E|-----|-----|------------------|------------------|-----|
Добавлено: 27.06.2013
Другие материалы по этой песне:
  • Аккорды и текст

Страница создана 27.06.2013
http://primanota.ru/grand-archives/the-crime-window-chords.htm
Привет, Гость.
Предлагаем пройти революционный курс по гитаре.
Подарок от PrimaNota.Ru, забирай!