PrimaNota.ru - самый крупный в мире бесплатный архив песенных текстов, аккордов, табулатур и нот


Grand Archives - Miniature Birds - текст песни, таба, видео

Регистрация Запомнить меня
Войти через:  Facebook Google Twitter Vk Yandex Mail.ru

Grand Archives - Miniature Birds - текст песни, таба, видео

Печатать
Просмотров: 93
-------------------------------------------------------------------------------
                       MINIATURE BIRDS - Grand Archives
-------------------------------------------------------------------------------

Band: Grand Archives
Song: Miniature Birds
Album: The Grand Archives (2008)

Tabbed by: Pascual Rambert (Chasco-Mousse, Argentina)

Chords: Capo on 2th fret
Tabs: without Capo


Intro (x2)

    D     D/C#   Bm    A       G
e|---------------------------9-12--|
B|--------7-9-10-9--~--10-12---12--|
G|--9--~---------------------------| Harmonica
D|---------------------------------|
A|---------------------------------|
E|---------------------------------|
 |
e|---------------------------------|
B|-----9--7-9-10-9-----------------|
G|------------------9---8-9-10-9---| Whistle
D|---------------------------------|
A|---------------------------------|
E|---------------------------------|


D D G G(maj7)

Westward course of empire has got
its wheels turning faster and on to disaster
so long, long, such a long way to go.

Riding up on a high horse looking at
all the soldiers and the holy rollers
so long, long, such a long way to go.


C C G G
It didn't take that long.
C C G D
It didn't take that long.


D D G G(maj7)

I could be reasonable, I could fight,
I could have at least been a little bit wiser
so long, long, such a long way go.

You know when those miniature birds
sing an ignorant song the choir's
putting us on tiral
so long, long, such a long way to go.


C C G G
It didn't take that long.
C C G D
It didn't take that long.


(2.05)
    D                   G
e|-7------7-9-7-------|-------------------|
B|----9---------9-7---|-------------------|
G|------------------9-|-8--6--------------| Brass1
D|--------------------|-------------------|
A|--------------------|-------------------|
E|--------------------|-------------------|
 |
e|--------------------|-7-----7-9-7-------|
B|--------------------|----10-------9-7---|
G|--------------------|-----------------9-| Brass2
D|--------------------|-------------------|
A|--------------------|-------------------|
E|--------------------|-------------------|

   D                   G                    Em7... 
e|-7-----7-9-7-------|--------------------|-------|
B|----9--------9-7---|--------------------|-------|
G|-----------------9-|-8--6---------------|-------| Brass1
D|-------------------|--------------------|-------|
A|-------------------|--------------------|-------|
E|-------------------|--------------------|-------|
 |
e|-------------------|-7-----7-9-7-4------|-------|
B|-------------------|----10-------9--7---|-7--~--|
G|-8-----------------|------------------9-|-------| Brass2
D|----9-9-9----------|--------------------|-------|
A|-------------------|--------------------|-------|
E|-------------------|--------------------|-------|


Em7 Em7 A F#m7
Riding up on high.



(Repeat Intro)

A A A A



(2.55)
   D                   G
e|-------------------|--------------------------|
B|-------------------|--------------------------|
G|-9-----9-8-9-8-9-8-|--------------------------| Brass1
D|----9--------------|-9-------7----------------|
A|-------------------|--------------------------|
E|-------------------|--------------------------|
 |
e|-------------------|----11--12-11-12-14-12-11-|
B|-------------------|-14-----------------------|
G|-------------------|--------------------------|  Brass2
D|-------------------|--------------------------|
A|-------------------|--------------------------|
E|-------------------|--------------------------|

   D                          G
e|--------------------------|---------------------------|
B|--------------------------|-10-9-10-9--10-12--9-------|
G|----9---<---<-------------|-----------------------9---| Brass1
D|-9------------------------|---------------------------|
A|--------------------------|---------------------------|
E|--------------------------|---------------------------|
 |
e|-12------12-11-12-11-9----|-----------------------9---|
B|----12-----------------12-|-10----------------12------|
G|--------------------------|---------------------------| Brass2
D|--------------------------|---------------------------|
A|--------------------------|---------------------------|
E|--------------------------|---------------------------|


C C G G
It didn't take that long.
C C G D
It didn't take that long.



-------------------------------


CHORDS
D       xx0232
D/C#    x4x232
Bm      x24432
A       x02220
G       320003
Gmaj7   3x0002
C       x32010
Em7     022030
F#m7    2x2220
Добавлено: 19.11.2013
Другие материалы по этой песне:
  • Аккорды и текст

Страница создана 19.11.2013
http://primanota.ru/grand-archives/miniature-birds-chords.htm
Привет, Гость.
Предлагаем пройти революционный курс по гитаре.
Подарок от PrimaNota.Ru, забирай!