PrimaNota.ru - самый крупный в мире бесплатный архив песенных текстов, аккордов, табулатур и нот


Grammatrain - Picture Pains - таба, видео

Регистрация Запомнить меня
Войти через:  Facebook Google Twitter Vk Yandex Mail.ru

Grammatrain - Picture Pains - таба, видео

Печатать
Просмотров: 74
		   Author/Artist: Grammatrain
Title: Picture Pains
Album: Lonely House
Transcribed by: Smile
Copywrite: Forefront Records
Email: Smile@kingdom.net  soon will be Smile@kofn.net

One of my Fav Grammatrain songs.  Email me if you agree.

-------------------------------------------
-------------------------------------------
-------------------------------------------
-10---10---10---5-----5---3--0----4--4--2--
--8----8----8---5-----5---3p-0----4--4--2--
----------------3-----3-----------2--2-----
  The "Verse"(Repeated throughout the song).


---------------------------------
---------------------------------
---------------------------------
------------3-----5--------------
-6---6---5--3-----5----6-5-7-6---
-4---4---4--0-----3----4-4-4-4---
                 Chorus  The last part may not be needed.     
Добавлено: 07.07.2013
Вам также может быть интересно:
Другие материалы по этой песне:
  • Аккорды и текст

Страница создана 07.07.2013
http://primanota.ru/grammatrain/picture-pains-chords.htm
Привет, Гость.
Предлагаем пройти революционный курс по гитаре.
Подарок от PrimaNota.Ru, забирай!