PrimaNota.ru - самый крупный в мире бесплатный архив песенных текстов, аккордов, табулатур и нот


Grammatrain - Lonely House - таба, бас-таба, видео

Регистрация Запомнить меня
Войти через:  Facebook Google Twitter Vk Yandex Mail.ru

Grammatrain - Lonely House - таба, бас-таба, видео

Печатать
Просмотров: 142
		   Lonely House
Grammatrain

It is necessary to put your guitar in drop-D tuning.  All chords are
power chords.

Intro:  D5, let ring for a while w/ feedback.  While chord is ringing,
bass starts in with this line.

(all on dropped-D string of bass) D-G-D-G-D-G-G-D-F-G-F 
D-G-D-G-D-G-G-D-D#-E-D#

Guitar plays a slow, groovy riff on the D-string (not the dropped-D
string).  Than it starts playing
the same riff as the bass, except with power chords.

D5-G5 G5--G5 G5-D5-F5-G5-F5  D5-G5 G5--G5 G5-D5-D#5-E5-D#5  (several
times)

Verse 1:  Guitar stops, only bass line continues.  At different times in
the verse, harmonics are used on
the 12th fret of the guitar with a wah-wah peddle.

Cannot grow pretend to bleed.  In my trough of grey I kneel to feed.

stare forward, glare behind.  Looking for what I cannot find.

Am I the soil, or the seed.

Chorus:
Bb5                 E5          Riff 1
Can't tell what's inside, anymore
Bb5             E5              Riff2
Could be I'm alright, like before
Bb5               E5
Black or white, I lost my sight
Bb5                 E5          Riff 1 & 2
Can't tell what's inside, anymore

Riff 1
e----------------------------------------------------
B----------------------------------------------------
G----------------------------------------------------
D--0-0-0-0-0-0-3-2-0---------------------------------
A----------------------------------------------------
D----------------------------------------------------

Riff 2
e----------------------------------------------------
B----------------------------------------------------
G----------------------------------------------------
D--0-0-0-0-0-0---------------------------------------
A--------------4-5-6---------------------------------
D----------------------------------------------------

Verse 2:  Guitar stops, only bass line continues.  At different times in
the verse, harmonics are used
on the 12th fret with a wah-wah peddle.

An angry child, never seen.  Since I got my wings, I'm never free

Mirror, mirror to me show  Someone that I do not know

In a lonely house, I look for thee

Chorus

D5-G5 G5--G5 G5-D5-F5-G5-F5  D5-G5 G5--G5 G5-D5-D#5-E5-D#5 (2x)

D5 (let ring for solo)

Solo uses the pentatonic scale in the key of D up at the 11th, 12th,
13th, and 14th frets

Chorus:
Bb5                 E5          Riff 1
Can't tell what's inside, anymore
Bb5            E5              Riff 2
Could be I'm alright, like before
Bb5                 E5
Black and white, I lost my sight
Bb5                 E5       D5(12th fret) C5 A5 G5 F5
Can't tell what's inside any      mooooooore     ya ya
Bb5                E5
Black and white, I lost my sight
Bb5                 E5         Riff 1 & 2 & 3
Can't tell what's inside anymore

Riff 3
e-----------------------------------------------
B-----------------------------------------------
G-----------------------------------------------
D--4-4-4-4-4-3-4-5---7-7-7-10-10-10-10-10-------
A-----------------------------------------------
D-----------------------------------------------

D5-G5 G5--G5 G5-D5-F5-G5-F5  D5-G5 G5--G5 G5-D5-D#5-E5-D#5

D5-G5 G5--G5 G5-D5-F5-G5-F5  D5-G5 G#5 (let ring)

transcribed by Josh Lindamood (joshua-lindamood@utulsa.edu)
     
Добавлено: 01.11.2013
Другие материалы по этой песне:
  • Аккорды и текст

Страница создана 04.06.2012
http://primanota.ru/grammatrain/lonely-house-chords.htm
Привет, Гость.
Предлагаем пройти революционный курс по гитаре.
Подарок от PrimaNota.Ru, забирай!