PrimaNota.ru - самый крупный в мире бесплатный архив песенных текстов, аккордов, табулатур и нот


Grammatrain - Found In You - таба, видео

Регистрация Запомнить меня
Войти через:  Facebook Google Twitter Vk Yandex Mail.ru

Grammatrain - Found In You - таба, видео

Печатать
Просмотров: 87
Уроки эстрадного вокала в Санкт-Петербурге
		   Found in You
by Grammatrain
Copyrighted by someone (I don't know) I think the year is 1997
Tabbed by Dean
E-mail: dometexp@aol.com


Intro:                                                      x 4 
E|---------------------------|------------------------------||
B|---------------------------|------------------------------||
G|--7---6---4p-----0--0--0-0-|---7---6---4p-----2--2--2-2---||
D|--7---7---7--7---7--7--7-7-|---7---7---7--7---4--4--4-4---||
A|---------------------------|------------------------------||
E|---------------------------|------------------------------||


or you can play it like this (it's easier):                  x 4
E|----------------------------|------------------------------||
B|----------------------------|------------------------------||
G|----------------------------|------------------------------||
D|--12---11---9\7---5--5--5-5-|---12---11---9\7---4--4--4-4--||
A|--0----0----0-0---0--0--0-0-|---0----0----0-0---0--0--0-0--||
E|----------------------------|------------------------------||


Verse 1: (Play with the opening riff)
As I lay here
looking toward the sky
beauty fills my eyes
And the wonders
spread across the land
painted with your hand


Chorus:
F           G
Looking for where I belong
F             G                A
Led me to the place I found in You
F           G                
Led me back where I've come from
F             G                   A
I could never leave this place in You


Verse 2:
Still silence
when You speak to me
like a summer breeze
and my soul
floating through the air
robbed of all my cares


Bridge Riff:                                                              x 4    
E--------------------------------------|-----------------------------------||
B--------------------------------------|-----------------------------------||
G--------------------------------------|--------------------------7--------||
D--------5---------4--5--4-------------|--------5--------4--5--4-------5-7-||
A--5--7-------5--7----------7--5--5/7--|--5--5------5--7-------------7-----||
E--------------------------------------|-----------------------------------||


Bridge: (Use bridge riff for first 2 lines)
Forever You were and You are
Forever You are Morning Star
F               D
You are (Jesus) You are (Jesus)
F                      D
You have lifted me and set me free


Chorus


Bridge riff and fade...


Sing this line: I have come to find this place in You.


All chords are barred, except for the D which is played like this:
D: x0023x


I know there is a problem with th bridge chords, so if you could me there.
If not, oh well.. ;)
There's also a second lick (used as background) on the Bridge Riff, I have
an idea of what it is, so wait for my update for this song.


God bless you,
Dean
dometexp@aol.com     
Добавлено: 12.07.2013
Другие материалы по этой песне:
  • Аккорды и текст

Страница создана 12.07.2013
http://primanota.ru/grammatrain/found-in-you-chords.htm
Привет, Гость.
Предлагаем пройти революционный курс по гитаре.
Подарок от PrimaNota.Ru, забирай!